  0
SECTION
  2
HEADER
  9
$ACADVER
  1
AC1018
  9
$ACADMAINTVER
 70
    39
  9
$DWGCODEPAGE
  3
ANSI_1252
  9
$INSBASE
 10
0.0
 20
0.0
 30
0.0
  9
$EXTMIN
 10
-66.16645274454814
 20
-2.523390136236367
 30
0.0
  9
$EXTMAX
 10
104.574626113736
 20
134.2140988750419
 30
0.0
  9
$LIMMIN
 10
0.0
 20
0.0
  9
$LIMMAX
 10
34.0
 20
22.0
  9
$ORTHOMODE
 70
     0
  9
$REGENMODE
 70
     1
  9
$FILLMODE
 70
     1
  9
$QTEXTMODE
 70
     0
  9
$MIRRTEXT
 70
     1
  9
$LTSCALE
 40
1.0
  9
$ATTMODE
 70
     1
  9
$TEXTSIZE
 40
0.125
  9
$TRACEWID
 40
0.05
  9
$TEXTSTYLE
  7
STANDARD
  9
$CLAYER
  8
0
  9
$CELTYPE
  6
ByLayer
  9
$CECOLOR
 62
   256
  9
$CELTSCALE
 40
1.0
  9
$DISPSILH
 70
     0
  9
$DIMSCALE
 40
1.0
  9
$DIMASZ
 40
0.13
  9
$DIMEXO
 40
0.05
  9
$DIMDLI
 40
0.38
  9
$DIMRND
 40
0.0
  9
$DIMDLE
 40
0.0
  9
$DIMEXE
 40
0.125
  9
$DIMTP
 40
0.0
  9
$DIMTM
 40
0.0
  9
$DIMTXT
 40
0.3611111111111111
  9
$DIMCEN
 40
0.09
  9
$DIMTSZ
 40
0.0
  9
$DIMTOL
 70
     0
  9
$DIMLIM
 70
     0
  9
$DIMTIH
 70
     1
  9
$DIMTOH
 70
     1
  9
$DIMSE1
 70
     0
  9
$DIMSE2
 70
     0
  9
$DIMTAD
 70
     0
  9
$DIMZIN
 70
     0
  9
$DIMBLK
  1

  9
$DIMASO
 70
     1
  9
$DIMSHO
 70
     1
  9
$DIMPOST
  1

  9
$DIMAPOST
  1

  9
$DIMALT
 70
     0
  9
$DIMALTD
 70
     2
  9
$DIMALTF
 40
25.4
  9
$DIMLFAC
 40
1.0
  9
$DIMTOFL
 70
     0
  9
$DIMTVP
 40
0.0
  9
$DIMTIX
 70
     0
  9
$DIMSOXD
 70
     0
  9
$DIMSAH
 70
     0
  9
$DIMBLK1
  1

  9
$DIMBLK2
  1

  9
$DIMSTYLE
  2
Standard
  9
$DIMCLRD
 70
     0
  9
$DIMCLRE
 70
     0
  9
$DIMCLRT
 70
     0
  9
$DIMTFAC
 40
1.0
  9
$DIMGAP
 40
0.06
  9
$DIMJUST
 70
     0
  9
$DIMSD1
 70
     0
  9
$DIMSD2
 70
     0
  9
$DIMTOLJ
 70
     1
  9
$DIMTZIN
 70
     0
  9
$DIMALTZ
 70
     0
  9
$DIMALTTZ
 70
     0
  9
$DIMUPT
 70
     0
  9
$DIMDEC
 70
     3
  9
$DIMTDEC
 70
     3
  9
$DIMALTU
 70
     2
  9
$DIMALTTD
 70
     2
  9
$DIMTXSTY
  7
STANDARD
  9
$DIMAUNIT
 70
     0
  9
$DIMADEC
 70
     1
  9
$DIMALTRND
 40
0.0
  9
$DIMAZIN
 70
     0
  9
$DIMDSEP
 70
    46
  9
$DIMATFIT
 70
     3
  9
$DIMFRAC
 70
     0
  9
$DIMLDRBLK
  1

  9
$DIMLUNIT
 70
     2
  9
$DIMLWD
 70
    -2
  9
$DIMLWE
 70
    -2
  9
$DIMTMOVE
 70
     0
  9
$LUNITS
 70
     2
  9
$LUPREC
 70
     2
  9
$SKETCHINC
 40
0.1
  9
$FILLETRAD
 40
0.5
  9
$AUNITS
 70
     0
  9
$AUPREC
 70
     2
  9
$MENU
  1
.
  9
$ELEVATION
 40
0.0
  9
$PELEVATION
 40
0.0
  9
$THICKNESS
 40
0.0
  9
$LIMCHECK
 70
     0
  9
$CHAMFERA
 40
0.0
  9
$CHAMFERB
 40
0.0
  9
$CHAMFERC
 40
0.0
  9
$CHAMFERD
 40
0.0
  9
$SKPOLY
 70
     0
  9
$TDCREATE
 40
2458750.460350961
  9
$TDUCREATE
 40
2458750.668684294
  9
$TDUPDATE
 40
2458750.490189815
  9
$TDUUPDATE
 40
2458750.698523148
  9
$TDINDWG
 40
0.0278894907
  9
$TDUSRTIMER
 40
0.0278894907
  9
$USRTIMER
 70
     1
  9
$ANGBASE
 50
0.0
  9
$ANGDIR
 70
     0
  9
$PDMODE
 70
     0
  9
$PDSIZE
 40
-1.0
  9
$PLINEWID
 40
0.0
  9
$SPLFRAME
 70
     0
  9
$SPLINETYPE
 70
     6
  9
$SPLINESEGS
 70
     8
  9
$HANDSEED
  5
BB3
  9
$SURFTAB1
 70
     6
  9
$SURFTAB2
 70
     6
  9
$SURFTYPE
 70
     6
  9
$SURFU
 70
     6
  9
$SURFV
 70
     6
  9
$UCSBASE
  2

  9
$UCSNAME
  2

  9
$UCSORG
 10
0.0
 20
0.0
 30
0.0
  9
$UCSXDIR
 10
1.0
 20
0.0
 30
0.0
  9
$UCSYDIR
 10
0.0
 20
1.0
 30
0.0
  9
$UCSORTHOREF
  2

  9
$UCSORTHOVIEW
 70
     0
  9
$UCSORGTOP
 10
0.0
 20
0.0
 30
0.0
  9
$UCSORGBOTTOM
 10
0.0
 20
0.0
 30
0.0
  9
$UCSORGLEFT
 10
0.0
 20
0.0
 30
0.0
  9
$UCSORGRIGHT
 10
0.0
 20
0.0
 30
0.0
  9
$UCSORGFRONT
 10
0.0
 20
0.0
 30
0.0
  9
$UCSORGBACK
 10
0.0
 20
0.0
 30
0.0
  9
$PUCSBASE
  2

  9
$PUCSNAME
  2

  9
$PUCSORG
 10
0.0
 20
0.0
 30
0.0
  9
$PUCSXDIR
 10
1.0
 20
0.0
 30
0.0
  9
$PUCSYDIR
 10
0.0
 20
1.0
 30
0.0
  9
$PUCSORTHOREF
  2

  9
$PUCSORTHOVIEW
 70
     0
  9
$PUCSORGTOP
 10
0.0
 20
0.0
 30
0.0
  9
$PUCSORGBOTTOM
 10
0.0
 20
0.0
 30
0.0
  9
$PUCSORGLEFT
 10
0.0
 20
0.0
 30
0.0
  9
$PUCSORGRIGHT
 10
0.0
 20
0.0
 30
0.0
  9
$PUCSORGFRONT
 10
0.0
 20
0.0
 30
0.0
  9
$PUCSORGBACK
 10
0.0
 20
0.0
 30
0.0
  9
$USERI1
 70
     0
  9
$USERI2
 70
     0
  9
$USERI3
 70
     0
  9
$USERI4
 70
     0
  9
$USERI5
 70
     0
  9
$USERR1
 40
0.0
  9
$USERR2
 40
0.0
  9
$USERR3
 40
0.0
  9
$USERR4
 40
0.0
  9
$USERR5
 40
0.0
  9
$WORLDVIEW
 70
     1
  9
$SHADEDGE
 70
     3
  9
$SHADEDIF
 70
    70
  9
$TILEMODE
 70
     1
  9
$MAXACTVP
 70
    64
  9
$PINSBASE
 10
0.0
 20
0.0
 30
0.0
  9
$PLIMCHECK
 70
     0
  9
$PEXTMIN
 10
1.000000000000000E+20
 20
1.000000000000000E+20
 30
1.000000000000000E+20
  9
$PEXTMAX
 10
-1.000000000000000E+20
 20
-1.000000000000000E+20
 30
-1.000000000000000E+20
  9
$PLIMMIN
 10
0.0
 20
0.0
  9
$PLIMMAX
 10
12.0
 20
9.0
  9
$UNITMODE
 70
     0
  9
$VISRETAIN
 70
     1
  9
$PLINEGEN
 70
     0
  9
$PSLTSCALE
 70
     1
  9
$TREEDEPTH
 70
  3020
  9
$CMLSTYLE
  2
Standard
  9
$CMLJUST
 70
     0
  9
$CMLSCALE
 40
1.0
  9
$PROXYGRAPHICS
 70
     1
  9
$MEASUREMENT
 70
     0
  9
$CELWEIGHT
370
    -1
  9
$ENDCAPS
280
     0
  9
$JOINSTYLE
280
     0
  9
$LWDISPLAY
290
     1
  9
$INSUNITS
 70
     1
  9
$HYPERLINKBASE
  1

  9
$STYLESHEET
  1

  9
$XEDIT
290
     1
  9
$CEPSNTYPE
380
     0
  9
$PSTYLEMODE
290
     1
  9
$FINGERPRINTGUID
  2
{74F0FA48-4CA4-4152-AEB3-2BD42286046F}
  9
$VERSIONGUID
  2
{8D6BB1FA-C04A-4DAB-99EF-66707B131B65}
  9
$EXTNAMES
290
     1
  9
$PSVPSCALE
 40
0.0
  9
$OLESTARTUP
290
     0
  9
$SORTENTS
280
   127
  9
$INDEXCTL
280
     0
  9
$HIDETEXT
280
     1
  9
$XCLIPFRAME
290
     0
  9
$HALOGAP
280
     0
  9
$OBSCOLOR
 70
   257
  9
$OBSLTYPE
280
     0
  9
$INTERSECTIONDISPLAY
280
     0
  9
$INTERSECTIONCOLOR
 70
   257
  9
$DIMASSOC
280
     2
  9
$PROJECTNAME
  1

  0
ENDSEC
  0
SECTION
  2
CLASSES
  0
CLASS
  1
ACDBDICTIONARYWDFLT
  2
AcDbDictionaryWithDefault
  3
ObjectDBX Classes
 90
        0
 91
        1
280
     0
281
     0
  0
CLASS
  1
VISUALSTYLE
  2
AcDbVisualStyle
  3
ObjectDBX Classes
 90
     4095
 91
        0
280
     0
281
     0
  0
CLASS
  1
MATERIAL
  2
AcDbMaterial
  3
ObjectDBX Classes
 90
        0
 91
        3
280
     0
281
     0
  0
CLASS
  1
SCALE
  2
AcDbScale
  3
ObjectDBX Classes
 90
     1153
 91
       33
280
     0
281
     0
  0
CLASS
  1
TABLESTYLE
  2
AcDbTableStyle
  3
ObjectDBX Classes
 90
     2047
 91
        1
280
     0
281
     0
  0
CLASS
  1
MLEADERSTYLE
  2
AcDbMLeaderStyle
  3
ACDB_MLEADERSTYLE_CLASS
 90
     4095
 91
        1
280
     0
281
     0
  0
CLASS
  1
SUN
  2
AcDbSun
  3
SCENEOE
 90
     1153
 91
        1
280
     0
281
     0
  0
CLASS
  1
DICTIONARYVAR
  2
AcDbDictionaryVar
  3
ObjectDBX Classes
 90
        0
 91
        3
280
     0
281
     0
  0
CLASS
  1
CELLSTYLEMAP
  2
AcDbCellStyleMap
  3
ObjectDBX Classes
 90
     1152
 91
        1
280
     0
281
     0
  0
CLASS
  1
DIMASSOC
  2
AcDbDimAssoc
  3
"AcDbDimAssoc|Product Desc:     AcDim ARX App For Dimension|Company:          Autodesk, Inc.|WEB Address:      www.autodesk.com"
 90
        0
 91
        6
280
     0
281
     0
  0
ENDSEC
  0
SECTION
  2
TABLES
  0
TABLE
  2
VPORT
  5
8
330
0
100
AcDbSymbolTable
 70
     8
  0
VPORT
  5
BB2
330
8
100
AcDbSymbolTableRecord
100
AcDbViewportTableRecord
  2
*Active
 70
     0
 10
0.0
 20
0.0
 11
1.0
 21
1.0
 12
19.20408632742988
 22
65.84535432990929
 13
0.0
 23
0.0
 14
0.5
 24
0.5
 15
0.5
 25
0.5
 16
0.0
 26
0.0
 36
1.0
 17
0.0
 27
0.0
 37
0.0
 40
166.9702737015245
 41
2.336906584992342
 42
50.0
 43
0.0
 44
0.0
 50
0.0
 51
0.0
 71
     0
 72
  2000
 73
     1
 74
     3
 75
     0
 76
     0
 77
     0
 78
     0
281
     0
 65
     1
110
0.0
120
0.0
130
0.0
111
1.0
121
0.0
131
0.0
112
0.0
122
1.0
132
0.0
 79
     0
146
0.0
  0
ENDTAB
  0
TABLE
  2
LTYPE
  5
5
330
0
100
AcDbSymbolTable
 70
     6
  0
LTYPE
  5
14
330
5
100
AcDbSymbolTableRecord
100
AcDbLinetypeTableRecord
  2
ByBlock
 70
     0
  3

 72
    65
 73
     0
 40
0.0
  0
LTYPE
  5
15
330
5
100
AcDbSymbolTableRecord
100
AcDbLinetypeTableRecord
  2
ByLayer
 70
     0
  3

 72
    65
 73
     0
 40
0.0
  0
LTYPE
  5
16
330
5
100
AcDbSymbolTableRecord
100
AcDbLinetypeTableRecord
  2
Continuous
 70
     0
  3
Solid line
 72
    65
 73
     0
 40
0.0
  0
LTYPE
  5
6E
330
5
100
AcDbSymbolTableRecord
100
AcDbLinetypeTableRecord
  2
HIDDEN
 70
     0
  3
Hidden __ __ __ __ __ __ __ __ __ __ __ __ __ __
 72
    65
 73
     2
 40
0.075
 49
0.05
 74
     0
 49
-0.025
 74
     0
  0
LTYPE
  5
6F
330
5
100
AcDbSymbolTableRecord
100
AcDbLinetypeTableRecord
  2
PHANTOM
 70
     0
  3
Phantom ______  __  __  ______  __  __  ______
 72
    65
 73
     6
 40
0.5
 49
0.25
 74
     0
 49
-0.05
 74
     0
 49
0.05
 74
     0
 49
-0.05
 74
     0
 49
0.05
 74
     0
 49
-0.05
 74
     0
  0
LTYPE
  5
70
330
5
100
AcDbSymbolTableRecord
100
AcDbLinetypeTableRecord
  2
CENTER
 70
     0
  3
Center ____ _ ____ _ ____ _ ____ _ ____ _ ____
 72
    65
 73
     4
 40
0.4
 49
0.25
 74
     0
 49
-0.05
 74
     0
 49
0.05
 74
     0
 49
-0.05
 74
     0
  0
LTYPE
  5
71
330
5
100
AcDbSymbolTableRecord
100
AcDbLinetypeTableRecord
  2
CENTERX2
 70
     0
  3
Center (2x) ________  __  ________  __  _____
 72
    65
 73
     4
 40
0.8
 49
0.5
 74
     0
 49
-0.1
 74
     0
 49
0.1
 74
     0
 49
-0.1
 74
     0
  0
LTYPE
  5
72
330
5
100
AcDbSymbolTableRecord
100
AcDbLinetypeTableRecord
  2
DOT2
 70
     0
  3
Dot (.5x) ........................................
 72
    65
 73
     2
 40
0.025
 49
0.0
 74
     0
 49
-0.025
 74
     0
  0
ENDTAB
  0
TABLE
  2
LAYER
  5
2
330
0
100
AcDbSymbolTable
 70
     2
  0
LAYER
  5
10
330
2
100
AcDbSymbolTableRecord
100
AcDbLayerTableRecord
  2
0
 70
     0
 62
     7
  6
Continuous
370
    -3
390
F
  0
LAYER
  5
7B8
330
2
100
AcDbSymbolTableRecord
100
AcDbLayerTableRecord
  2
Defpoints
 70
     0
 62
     7
  6
Continuous
290
     0
370
    -3
390
F
  0
ENDTAB
  0
TABLE
  2
STYLE
  5
3
330
0
100
AcDbSymbolTable
 70
     5
  0
STYLE
  5
11
330
3
100
AcDbSymbolTableRecord
100
AcDbTextStyleTableRecord
  2
STANDARD
 70
     0
 40
0.0
 41
1.0
 50
0.0
 71
     0
 42
0.125
  3
GOTHIC.TTF
  4

1001
ACAD
1000
CENTURY GOTHIC
1071
       34
  0
STYLE
  5
106
330
3
100
AcDbSymbolTableRecord
100
AcDbTextStyleTableRecord
  2
SLDTEXTSTYLE0
 70
     0
 40
0.0
 41
0.913
 50
0.0
 71
     0
 42
0.125
  3
GOTHIC.TTF
  4

1001
ACAD
1000
Century Gothic
1071
      290
  0
STYLE
  5
116
330
3
100
AcDbSymbolTableRecord
100
AcDbTextStyleTableRecord
  2
SLDTEXTSTYLE1
 70
     0
 40
0.0
 41
0.913
 50
0.0
 71
     0
 42
0.125
  3
GOTHIC.TTF
  4

1001
ACAD
1000
Century Gothic
1071
 33554722
  0
STYLE
  5
118
330
3
100
AcDbSymbolTableRecord
100
AcDbTextStyleTableRecord
  2
SLDTEXTSTYLE2
 70
     0
 40
0.0
 41
0.913
 50
0.0
 71
     0
 42
0.125
  3
GOTHIC.TTF
  4

1001
ACAD
1000
Century Gothic
1071
 50331938
  0
STYLE
  5
147
330
3
100
AcDbSymbolTableRecord
100
AcDbTextStyleTableRecord
  2
SLDTEXTSTYLE3
 70
     0
 40
0.0
 41
0.933
 50
0.0
 71
     0
 42
0.125
  3
TIMESBI.TTF
  4

1001
ACAD
1000
Times New Roman
1071
 50331922
  0
ENDTAB
  0
TABLE
  2
VIEW
  5
6
330
0
100
AcDbSymbolTable
 70
     0
  0
ENDTAB
  0
TABLE
  2
UCS
  5
7
330
0
100
AcDbSymbolTable
 70
     0
  0
ENDTAB
  0
TABLE
  2
APPID
  5
9
330
0
100
AcDbSymbolTable
 70
     3
  0
APPID
  5
12
330
9
100
AcDbSymbolTableRecord
100
AcDbRegAppTableRecord
  2
ACAD
 70
     0
  0
APPID
  5
7A8
330
9
100
AcDbSymbolTableRecord
100
AcDbRegAppTableRecord
  2
ACAD_MLEADERVER
 70
     0
  0
APPID
  5
7D2
330
9
100
AcDbSymbolTableRecord
100
AcDbRegAppTableRecord
  2
ACAD_DSTYLE_DIMTEXT_FILL
 70
     0
  0
ENDTAB
  0
TABLE
  2
DIMSTYLE
  5
A
330
0
100
AcDbSymbolTable
 70
     4
100
AcDbDimStyleTable
 71
     1
340
27
  0
DIMSTYLE
105
27
330
A
100
AcDbSymbolTableRecord
100
AcDbDimStyleTableRecord
  2
Standard
 70
     0
340
11
  0
DIMSTYLE
105
1CC
330
A
100
AcDbSymbolTableRecord
100
AcDbDimStyleTableRecord
  2
SLDDIMSTYLE0
 70
     0
 41
0.13
 44
0.0
 45
0.000000001
 78
    12
 79
     3
140
0.2708333333333333
144
8.0
147
0.0677083333333333
173
     1
271
     1
272
     1
276
     2
284
    12
340
106
  0
DIMSTYLE
105
2A7
330
A
100
AcDbSymbolTableRecord
100
AcDbDimStyleTableRecord
  2
SLDDIMSTYLE1
 70
     0
 41
0.13
 44
0.0
 45
0.000000001
 78
    12
 79
     3
140
0.2708333333333333
144
8.0
147
0.0677083333333333
172
     1
173
     1
271
     1
272
     1
276
     2
284
    12
289
     0
340
106
  0
DIMSTYLE
105
2EE
330
A
100
AcDbSymbolTableRecord
100
AcDbDimStyleTableRecord
  2
SLDDIMSTYLE2
 70
     0
 41
0.13
 44
0.0
 45
0.000000001
146
0.13
147
0.0
173
     1
271
     0
272
     0
276
     2
340
11
  0
ENDTAB
  0
TABLE
  2
BLOCK_RECORD
  5
1
330
0
100
AcDbSymbolTable
 70
    31
  0
BLOCK_RECORD
  5
1F
330
1
100
AcDbSymbolTableRecord
100
AcDbBlockTableRecord
  2
*Model_Space
340
22
  0
BLOCK_RECORD
  5
1B
330
1
100
AcDbSymbolTableRecord
100
AcDbBlockTableRecord
  2
*Paper_Space
340
1E
  0
BLOCK_RECORD
  5
23
330
1
100
AcDbSymbolTableRecord
100
AcDbBlockTableRecord
  2
*Paper_Space0
340
26
  0
BLOCK_RECORD
  5
10F
330
1
100
AcDbSymbolTableRecord
100
AcDbBlockTableRecord
  2
SW_NOTE_0
340
0
  0
BLOCK_RECORD
  5
144
330
1
100
AcDbSymbolTableRecord
100
AcDbBlockTableRecord
  2
SW_NOTE_1
340
0
  0
BLOCK_RECORD
  5
169
330
1
100
AcDbSymbolTableRecord
100
AcDbBlockTableRecord
  2
SW_NOTE_2
340
0
  0
BLOCK_RECORD
  5
178
330
1
100
AcDbSymbolTableRecord
100
AcDbBlockTableRecord
  2
SW_NOTE_3
340
0
  0
BLOCK_RECORD
  5
1CD
330
1
100
AcDbSymbolTableRecord
100
AcDbBlockTableRecord
  2
_D
340
0
  0
BLOCK_RECORD
  5
215
330
1
100
AcDbSymbolTableRecord
100
AcDbBlockTableRecord
  2
_D_1
340
0
  0
BLOCK_RECORD
  5
21F
330
1
100
AcDbSymbolTableRecord
100
AcDbBlockTableRecord
  2
_D_2
340
0
  0
BLOCK_RECORD
  5
22A
330
1
100
AcDbSymbolTableRecord
100
AcDbBlockTableRecord
  2
_D_3
340
0
  0
BLOCK_RECORD
  5
264
330
1
100
AcDbSymbolTableRecord
100
AcDbBlockTableRecord
  2
_D_4
340
0
  0
BLOCK_RECORD
  5
26F
330
1
100
AcDbSymbolTableRecord
100
AcDbBlockTableRecord
  2
_D_5
340
0
  0
BLOCK_RECORD
  5
27A
330
1
100
AcDbSymbolTableRecord
100
AcDbBlockTableRecord
  2
_D_6
340
0
  0
BLOCK_RECORD
  5
285
330
1
100
AcDbSymbolTableRecord
100
AcDbBlockTableRecord
  2
_D_7
340
0
  0
BLOCK_RECORD
  5
290
330
1
100
AcDbSymbolTableRecord
100
AcDbBlockTableRecord
  2
_D_8
340
0
  0
BLOCK_RECORD
  5
29B
330
1
100
AcDbSymbolTableRecord
100
AcDbBlockTableRecord
  2
_D_9
340
0
  0
BLOCK_RECORD
  5
2A8
330
1
100
AcDbSymbolTableRecord
100
AcDbBlockTableRecord
  2
_D_10
340
0
  0
BLOCK_RECORD
  5
2B3
330
1
100
AcDbSymbolTableRecord
100
AcDbBlockTableRecord
  2
_D_11
340
0
  0
BLOCK_RECORD
  5
2BE
330
1
100
AcDbSymbolTableRecord
100
AcDbBlockTableRecord
  2
_D_12
340
0
  0
BLOCK_RECORD
  5
2C8
330
1
100
AcDbSymbolTableRecord
100
AcDbBlockTableRecord
  2
_D_13
340
0
  0
BLOCK_RECORD
  5
2D2
330
1
100
AcDbSymbolTableRecord
100
AcDbBlockTableRecord
  2
_D_14
340
0
  0
BLOCK_RECORD
  5
2DD
330
1
100
AcDbSymbolTableRecord
100
AcDbBlockTableRecord
  2
_D_15
340
0
  0
BLOCK_RECORD
  5
2E7
330
1
100
AcDbSymbolTableRecord
100
AcDbBlockTableRecord
  2
SW_NOTE_4
340
0
  0
BLOCK_RECORD
  5
30C
330
1
100
AcDbSymbolTableRecord
100
AcDbBlockTableRecord
  2
_D_16
340
0
  0
BLOCK_RECORD
  5
3D3
330
1
100
AcDbSymbolTableRecord
100
AcDbBlockTableRecord
  2
_D_17
340
0
  0
BLOCK_RECORD
  5
3DE
330
1
100
AcDbSymbolTableRecord
100
AcDbBlockTableRecord
  2
_D_18
340
0
  0
BLOCK_RECORD
  5
7B9
330
1
100
AcDbSymbolTableRecord
100
AcDbBlockTableRecord
  2
*D25
340
0
  0
BLOCK_RECORD
  5
836
330
1
100
AcDbSymbolTableRecord
100
AcDbBlockTableRecord
  2
*D26
340
0
  0
BLOCK_RECORD
  5
850
330
1
100
AcDbSymbolTableRecord
100
AcDbBlockTableRecord
  2
*D27
340
0
  0
BLOCK_RECORD
  5
86A
330
1
100
AcDbSymbolTableRecord
100
AcDbBlockTableRecord
  2
*D28
340
0
  0
BLOCK_RECORD
  5
9F0
330
1
100
AcDbSymbolTableRecord
100
AcDbBlockTableRecord
  2
*D29
340
0
  0
BLOCK_RECORD
  5
B97
330
1
100
AcDbSymbolTableRecord
100
AcDbBlockTableRecord
  2
*D30
340
0
  0
ENDTAB
  0
ENDSEC
  0
SECTION
  2
BLOCKS
  0
BLOCK
  5
20
330
1F
100
AcDbEntity
  8
0
100
AcDbBlockBegin
  2
*Model_Space
 70
     0
 10
0.0
 20
0.0
 30
0.0
  3
*Model_Space
  1

  0
ENDBLK
  5
21
330
1F
100
AcDbEntity
  8
0
100
AcDbBlockEnd
  0
BLOCK
  5
1C
330
1B
100
AcDbEntity
 67
     1
  8
0
100
AcDbBlockBegin
  2
*Paper_Space
 70
     0
 10
0.0
 20
0.0
 30
0.0
  3
*Paper_Space
  1

  0
ENDBLK
  5
1D
330
1B
100
AcDbEntity
 67
     1
  8
0
100
AcDbBlockEnd
  0
BLOCK
  5
24
330
23
100
AcDbEntity
  8
0
100
AcDbBlockBegin
  2
*Paper_Space0
 70
     0
 10
0.0
 20
0.0
 30
0.0
  3
*Paper_Space0
  1

  0
ENDBLK
  5
25
330
23
100
AcDbEntity
  8
0
100
AcDbBlockEnd
  0
BLOCK
  5
110
330
10F
100
AcDbEntity
  8
0
100
AcDbBlockBegin
  2
SW_NOTE_0
 70
     0
 10
0.0
 20
0.0
 30
0.0
  3
SW_NOTE_0
  1

  0
MTEXT
  5
112
330
10F
100
AcDbEntity
  8
0
  6
Continuous
 62
     0
370
     0
100
AcDbMText
 10
0.0
 20
0.2395019531250004
 30
0.0
 40
0.1875
 41
0.0
 71
     1
 72
     1
  1
NOTES:
  7
SLDTEXTSTYLE0
 73
     1
 44
1.0
  0
MTEXT
  5
113
330
10F
100
AcDbEntity
  8
0
  6
Continuous
 62
     0
370
     0
100
AcDbMText
 10
0.0
 20
-0.0104980438537012
 30
0.0
 40
0.1875
 41
0.0
 71
     1
 72
     1
  1
   1.  USES FOUR 2" x .250 THICK T-6061-T6 ALUMINUM INTERNAL BRACES 
  7
SLDTEXTSTYLE0
 73
     1
 44
1.0
  0
MTEXT
  5
114
330
10F
100
AcDbEntity
  8
0
  6
Continuous
 62
     0
370
     0
100
AcDbMText
 10
0.0
 20
-0.2604980408324027
 30
0.0
 40
0.1875
 41
0.0
 71
     1
 72
     1
  1
        CONNECTED TO FLYPOINTS.
  7
SLDTEXTSTYLE0
 73
     1
 44
1.0
  0
ENDBLK
  5
111
330
10F
100
AcDbEntity
  8
0
100
AcDbBlockEnd
  0
BLOCK
  5
145
330
144
100
AcDbEntity
  8
0
100
AcDbBlockBegin
  2
SW_NOTE_1
 70
     0
 10
0.0
 20
0.0
 30
0.0
  3
SW_NOTE_1
  1

  0
MTEXT
  5
148
330
144
100
AcDbEntity
  8
0
  6
Continuous
 62
     0
370
     0
100
AcDbMText
 10
1.203124999999997
 20
0.109889449651526
 30
0.0
 40
0.0833333333333333
 41
0.0
 71
     2
 72
     1
  1
THE INFORMATION IN THIS DOCUMENT 
  7
SLDTEXTSTYLE3
 73
     1
 44
1.0
  0
MTEXT
  5
149
330
144
100
AcDbEntity
  8
0
  6
Continuous
 62
     0
370
     0
100
AcDbMText
 10
1.19833135119886
 20
-0.0012216601167858
 30
0.0
 40
0.0833333333333333
 41
0.0
 71
     2
 72
     1
  1
IS THE PROPERTY OF KLIPSCH L.L.C
  7
SLDTEXTSTYLE3
 73
     1
 44
1.0
  0
MTEXT
  5
14A
330
144
100
AcDbEntity
  8
0
  6
Continuous
 62
     0
370
     0
100
AcDbMText
 10
1.190557468125199
 20
-0.1123327698850976
 30
0.0
 40
0.0833333333333333
 41
0.0
 71
     2
 72
     1
  1
AND CONTAINS PROPRIETARY AND
  7
SLDTEXTSTYLE3
 73
     1
 44
1.0
  0
MTEXT
  5
14B
330
144
100
AcDbEntity
  8
0
  6
Continuous
 62
     0
370
     0
100
AcDbMText
 10
1.19184022668622
 20
-0.2234438796534094
 30
0.0
 40
0.0833333333333333
 41
0.0
 71
     2
 72
     1
  1
CONFIDENTIAL INFORMATION. THIS
  7
SLDTEXTSTYLE3
 73
     1
 44
1.0
  0
MTEXT
  5
14C
330
144
100
AcDbEntity
  8
0
  6
Continuous
 62
     0
370
     0
100
AcDbMText
 10
1.178038265487654
 20
-0.3345549894217212
 30
0.0
 40
0.0833333333333333
 41
0.0
 71
     2
 72
     1
  1
DOCUMENT IS GIVEN FOR THE
  7
SLDTEXTSTYLE3
 73
     1
 44
1.0
  0
MTEXT
  5
14D
330
144
100
AcDbEntity
  8
0
  6
Continuous
 62
     0
370
     0
100
AcDbMText
 10
1.180748386176551
 20
-0.4456660991900331
 30
0.0
 40
0.0833333333333333
 41
0.0
 71
     2
 72
     1
  1
PURPOSE OF QUOTATION OR 
  7
SLDTEXTSTYLE3
 73
     1
 44
1.0
  0
MTEXT
  5
14E
330
144
100
AcDbEntity
  8
0
  6
Continuous
 62
     0
370
     0
100
AcDbMText
 10
1.205102156036169
 20
-0.5567772089583448
 30
0.0
 40
0.0833333333333333
 41
0.0
 71
     2
 72
     1
  1
PROCUREMENT AND THE INFORMATION 
  7
SLDTEXTSTYLE3
 73
     1
 44
1.0
  0
MTEXT
  5
14F
330
144
100
AcDbEntity
  8
0
  6
Continuous
 62
     0
370
     0
100
AcDbMText
 10
1.193287134678971
 20
-0.6678883187266567
 30
0.0
 40
0.0833333333333333
 41
0.0
 71
     2
 72
     1
  1
CONTAINED HEREIN SHALL NOT BE 
  7
SLDTEXTSTYLE3
 73
     1
 44
1.0
  0
MTEXT
  5
150
330
144
100
AcDbEntity
  8
0
  6
Continuous
 62
     0
370
     0
100
AcDbMText
 10
1.183024654551129
 20
-0.7789994284949686
 30
0.0
 40
0.0833333333333333
 41
0.0
 71
     2
 72
     1
  1
DISCLOSED TO OTHERS, OR BE
  7
SLDTEXTSTYLE3
 73
     1
 44
1.0
  0
MTEXT
  5
151
330
144
100
AcDbEntity
  8
0
  6
Continuous
 62
     0
370
     0
100
AcDbMText
 10
1.181645443315892
 20
-0.8901105382632803
 30
0.0
 40
0.0833333333333333
 41
0.0
 71
     2
 72
     1
  1
DUPLICATED FOR ANY OTHER
  7
SLDTEXTSTYLE3
 73
     1
 44
1.0
  0
MTEXT
  5
152
330
144
100
AcDbEntity
  8
0
  6
Continuous
 62
     0
370
     0
100
AcDbMText
 10
1.188676582351131
 20
-1.001221648031592
 30
0.0
 40
0.0833333333333333
 41
0.0
 71
     2
 72
     1
  1
PURPOSE WITHOUT THE EXPRESS
  7
SLDTEXTSTYLE3
 73
     1
 44
1.0
  0
MTEXT
  5
153
330
144
100
AcDbEntity
  8
0
  6
Continuous
 62
     0
370
     0
100
AcDbMText
 10
1.161217177829403
 20
-1.112332757799903
 30
0.0
 40
0.0833333333333333
 41
0.0
 71
     2
 72
     1
  1
WRITTEN CONSENT OF 
  7
SLDTEXTSTYLE3
 73
     1
 44
1.0
  0
MTEXT
  5
154
330
144
100
AcDbEntity
  8
0
  6
Continuous
 62
     0
370
     0
100
AcDbMText
 10
1.143470261822848
 20
-1.223443867568215
 30
0.0
 40
0.0833333333333333
 41
0.0
 71
     2
 72
     1
  1
KLIPSCH L.L.C. 
  7
SLDTEXTSTYLE3
 73
     1
 44
1.0
  0
ENDBLK
  5
146
330
144
100
AcDbEntity
  8
0
100
AcDbBlockEnd
  0
BLOCK
  5
16A
330
169
100
AcDbEntity
  8
0
100
AcDbBlockBegin
  2
SW_NOTE_2
 70
     0
 10
0.0
 20
0.0
 30
0.0
  3
SW_NOTE_2
  1

  0
MTEXT
  5
16C
330
169
100
AcDbEntity
  8
0
  6
Continuous
 62
     0
370
     0
100
AcDbMText
 10
0.6708984374999993
 20
0.1197509765625
 30
0.0
 40
0.09375
 41
0.0
 71
     2
 72
     1
  1
AUDIO TECHNOLOGIES
  7
SLDTEXTSTYLE1
 73
     1
 44
1.0
  0
MTEXT
  5
16D
330
169
100
AcDbEntity
  8
0
  6
Continuous
 62
     0
370
     0
100
AcDbMText
 10
0.6703884676685483
 20
-0.0052490219268509
 30
0.0
 40
0.09375
 41
0.0
 71
     2
 72
     1
  1
137 COUNTY ROAD
  7
SLDTEXTSTYLE1
 73
     1
 44
1.0
  0
MTEXT
  5
16E
330
169
100
AcDbEntity
  8
0
  6
Continuous
 62
     0
370
     0
100
AcDbMText
 10
0.6684896224655052
 20
-0.1302490204162016
 30
0.0
 40
0.09375
 41
0.0
 71
     2
 72
     1
  1
# 278
  7
SLDTEXTSTYLE1
 73
     1
 44
1.0
  0
MTEXT
  5
16F
330
169
100
AcDbEntity
  8
0
  6
Continuous
 62
     0
370
     0
100
AcDbMText
 10
0.6766167507748924
 20
-0.2552490189055524
 30
0.0
 40
0.09375
 41
0.0
 71
     2
 72
     1
  1
HOPE, AR  71801
  7
SLDTEXTSTYLE1
 73
     1
 44
1.0
  0
ENDBLK
  5
16B
330
169
100
AcDbEntity
  8
0
100
AcDbBlockEnd
  0
BLOCK
  5
179
330
178
100
AcDbEntity
  8
0
100
AcDbBlockBegin
  2
SW_NOTE_3
 70
     0
 10
0.0
 20
0.0
 30
0.0
  3
SW_NOTE_3
  1

  0
MTEXT
  5
17B
330
178
100
AcDbEntity
  8
0
  6
Continuous
 62
     0
370
     0
100
AcDbMText
 10
0.8984375000000019
 20
0.212890625
 30
0.0
 40
0.1666666666666666
 41
0.0
 71
     2
 72
     1
  1
KPT-684-SW-SMA
  7
SLDTEXTSTYLE1
 73
     1
 44
1.0
  0
MTEXT
  5
17C
330
178
100
AcDbEntity
  8
0
  6
Continuous
 62
     0
370
     0
100
AcDbMText
 10
0.8867863553559041
 20
-0.0093315945366237
 30
0.0
 40
0.1666666666666666
 41
0.0
 71
     2
 72
     1
  1
2D ARCH DRAWING
  7
SLDTEXTSTYLE1
 73
     1
 44
1.0
  0
ENDBLK
  5
17A
330
178
100
AcDbEntity
  8
0
100
AcDbBlockEnd
  0
BLOCK
  5
1CE
330
1CD
100
AcDbEntity
  8
0
100
AcDbBlockBegin
  2
_D
 70
     0
 10
0.0
 20
0.0
 30
0.0
  3
_D
  1

  0
LINE
  5
A62
330
1CD
100
AcDbEntity
  8
0
  6
Continuous
 62
     0
370
    -2
100
AcDbLine
 10
5.456688446448623
 20
73.83704828509945
 30
0.0
 11
5.456688446448623
 21
77.60854618533549
 31
0.0
  0
LINE
  5
A63
330
1CD
100
AcDbEntity
  8
0
  6
Continuous
 62
     0
370
    -2
100
AcDbLine
 10
52.10512126269863
 20
73.83861947585976
 30
0.0
 11
52.10512126269863
 21
77.60854618533549
 31
0.0
  0
LINE
  5
A64
330
1CD
100
AcDbEntity
  8
0
  6
Continuous
 62
     0
370
    -2
100
AcDbLine
 10
5.586688446448623
 20
77.60854618533549
 30
0.0
 11
28.09277676159683
 21
77.60854618533549
 31
0.0
  0
LINE
  5
A65
330
1CD
100
AcDbEntity
  8
0
  6
Continuous
 62
     0
370
    -2
100
AcDbLine
 10
51.97512126269863
 20
77.60854618533549
 30
0.0
 11
29.7173656325463
 21
77.60854618533549
 31
0.0
  0
SOLID
  5
A66
330
1CD
100
AcDbEntity
  8
0
  6
Continuous
 62
     0
100
AcDbTrace
 10
5.586688446448623
 20
77.63021285200216
 30
0.0
 11
5.586688446448623
 21
77.58687951866884
 31
0.0
 12
5.456688446448623
 22
77.60854618533549
 32
0.0
 13
5.456688446448623
 23
77.60854618533549
 33
0.0
  0
SOLID
  5
A67
330
1CD
100
AcDbEntity
  8
0
  6
Continuous
 62
     0
100
AcDbTrace
 10
51.97512126269863
 20
77.63021285200216
 30
0.0
 11
51.97512126269863
 21
77.58687951866884
 31
0.0
 12
52.10512126269863
 22
77.60854618533549
 32
0.0
 13
52.10512126269863
 23
77.60854618533549
 33
0.0
  0
MTEXT
  5
A68
330
1CD
100
AcDbEntity
  8
0
  6
Continuous
 62
     0
370
    18
100
AcDbMText
 10
28.90507119707157
 20
77.75077511123625
 30
0.0
 40
0.2708333333333333
 41
0.0
 71
     2
 72
     1
  1
\A1;373.2 REF
  7
SLDTEXTSTYLE0
 73
     1
 44
1.0
  0
POINT
  5
A69
330
1CD
100
AcDbEntity
  8
Defpoints
  6
Continuous
 62
     0
100
AcDbPoint
 10
5.456688446448623
 20
73.77454828509946
 30
0.0
  0
POINT
  5
A6A
330
1CD
100
AcDbEntity
  8
Defpoints
  6
Continuous
 62
     0
100
AcDbPoint
 10
52.10512126269863
 20
73.77611947585975
 30
0.0
  0
POINT
  5
A6B
330
1CD
100
AcDbEntity
  8
Defpoints
  6
Continuous
 62
     0
100
AcDbPoint
 10
52.10512126269863
 20
77.60854618533549
 30
0.0
  0
ENDBLK
  5
1CF
330
1CD
100
AcDbEntity
  8
0
100
AcDbBlockEnd
  0
BLOCK
  5
216
330
215
100
AcDbEntity
  8
0
100
AcDbBlockBegin
  2
_D_1
 70
     0
 10
0.0
 20
0.0
 30
0.0
  3
_D_1
  1

  0
LINE
  5
A6C
330
215
100
AcDbEntity
  8
0
  6
Continuous
 62
     0
370
    -2
100
AcDbLine
 10
84.19644560605805
 20
61.40990096569886
 30
0.0
 11
79.73169200138952
 21
61.40990096569887
 31
0.0
  0
LINE
  5
A6D
330
215
100
AcDbEntity
  8
0
  6
Continuous
 62
     0
370
    -2
100
AcDbLine
 10
66.51905409755802
 20
49.97680508069885
 30
0.0
 11
79.73169200138952
 21
49.97680508069885
 31
0.0
  0
LINE
  5
A6E
330
215
100
AcDbEntity
  8
0
  6
Continuous
 62
     0
370
    -2
100
AcDbLine
 10
79.73169200138952
 20
61.27990096569887
 30
0.0
 11
79.73169200138952
 21
56.7377966519786
 31
0.0
  0
LINE
  5
A6F
330
215
100
AcDbEntity
  8
0
  6
Continuous
 62
     0
370
    -2
100
AcDbLine
 10
79.73169200138952
 20
50.10680508069885
 30
0.0
 11
79.73169200138952
 21
56.31792213351044
 31
0.0
  0
SOLID
  5
A70
330
215
100
AcDbEntity
  8
0
  6
Continuous
 62
     0
100
AcDbTrace
 10
79.71002533472286
 20
61.27990096569887
 30
0.0
 11
79.75335866805618
 21
61.27990096569887
 31
0.0
 12
79.73169200138952
 22
61.40990096569887
 32
0.0
 13
79.73169200138952
 23
61.40990096569887
 33
0.0
  0
SOLID
  5
A71
330
215
100
AcDbEntity
  8
0
  6
Continuous
 62
     0
100
AcDbTrace
 10
79.71002533472286
 20
50.10680508069885
 30
0.0
 11
79.75335866805618
 21
50.10680508069885
 31
0.0
 12
79.73169200138952
 22
49.97680508069885
 32
0.0
 13
79.73169200138952
 23
49.97680508069885
 33
0.0
  0
MTEXT
  5
A72
330
215
100
AcDbEntity
  8
0
  6
Continuous
 62
     0
370
    18
100
AcDbMText
 10
79.73169200138951
 20
56.67008831864528
 30
0.0
 40
0.2708333333333333
 41
0.0
 71
     2
 72
     1
  1
\A1;91.5
  7
SLDTEXTSTYLE0
 73
     1
 44
1.0
  0
POINT
  5
A73
330
215
100
AcDbEntity
  8
Defpoints
  6
Continuous
 62
     0
100
AcDbPoint
 10
84.25894560605804
 20
61.40990096569886
 30
0.0
  0
POINT
  5
A74
330
215
100
AcDbEntity
  8
Defpoints
  6
Continuous
 62
     0
100
AcDbPoint
 10
66.45655409755803
 20
49.97680508069885
 30
0.0
  0
POINT
  5
A75
330
215
100
AcDbEntity
  8
Defpoints
  6
Continuous
 62
     0
100
AcDbPoint
 10
79.73169200138952
 20
49.97680508069885
 30
0.0
  0
ENDBLK
  5
217
330
215
100
AcDbEntity
  8
0
100
AcDbBlockEnd
  0
BLOCK
  5
220
330
21F
100
AcDbEntity
  8
0
100
AcDbBlockBegin
  2
_D_2
 70
     0
 10
0.0
 20
0.0
 30
0.0
  3
_D_2
  1

  0
LINE
  5
A76
330
21F
100
AcDbEntity
  8
0
  6
Continuous
 62
     0
370
    -2
100
AcDbLine
 10
84.25894560605804
 20
61.34740096569887
 30
0.0
 11
84.25894560605804
 21
48.15650155484785
 31
0.0
  0
LINE
  5
A77
330
21F
100
AcDbEntity
  8
0
  6
Continuous
 62
     0
370
    -2
100
AcDbLine
 10
96.898423324808
 20
49.91430508069885
 30
0.0
 11
96.898423324808
 21
48.15650155484785
 31
0.0
  0
LINE
  5
A78
330
21F
100
AcDbEntity
  8
0
  6
Continuous
 62
     0
370
    -2
100
AcDbLine
 10
84.38894560605804
 20
48.15650155484785
 30
0.0
 11
90.13592133454707
 21
48.15650155484785
 31
0.0
  0
LINE
  5
A79
330
21F
100
AcDbEntity
  8
0
  6
Continuous
 62
     0
370
    -2
100
AcDbLine
 10
96.76842332480802
 20
48.15650155484785
 30
0.0
 11
91.00239228684712
 21
48.15650155484785
 31
0.0
  0
SOLID
  5
A7A
330
21F
100
AcDbEntity
  8
0
  6
Continuous
 62
     0
100
AcDbTrace
 10
84.38894560605804
 20
48.17816822151452
 30
0.0
 11
84.38894560605804
 21
48.13483488818118
 31
0.0
 12
84.25894560605804
 22
48.15650155484785
 32
0.0
 13
84.25894560605804
 23
48.15650155484785
 33
0.0
  0
SOLID
  5
A7B
330
21F
100
AcDbEntity
  8
0
  6
Continuous
 62
     0
100
AcDbTrace
 10
96.76842332480802
 20
48.17816822151452
 30
0.0
 11
96.76842332480802
 21
48.13483488818118
 31
0.0
 12
96.898423324808
 22
48.15650155484785
 32
0.0
 13
96.898423324808
 23
48.15650155484785
 33
0.0
  0
MTEXT
  5
A7C
330
21F
100
AcDbEntity
  8
0
  6
Continuous
 62
     0
370
    18
100
AcDbMText
 10
90.56915681069709
 20
48.29873048074859
 30
0.0
 40
0.2708333333333333
 41
0.0
 71
     2
 72
     1
  1
\A1;101.1
  7
SLDTEXTSTYLE0
 73
     1
 44
1.0
  0
POINT
  5
A7D
330
21F
100
AcDbEntity
  8
Defpoints
  6
Continuous
 62
     0
100
AcDbPoint
 10
84.25894560605804
 20
61.40990096569886
 30
0.0
  0
POINT
  5
A7E
330
21F
100
AcDbEntity
  8
Defpoints
  6
Continuous
 62
     0
100
AcDbPoint
 10
96.898423324808
 20
49.97680508069885
 30
0.0
  0
POINT
  5
A7F
330
21F
100
AcDbEntity
  8
Defpoints
  6
Continuous
 62
     0
100
AcDbPoint
 10
96.898423324808
 20
48.15650155484785
 30
0.0
  0
ENDBLK
  5
221
330
21F
100
AcDbEntity
  8
0
100
AcDbBlockEnd
  0
BLOCK
  5
22B
330
22A
100
AcDbEntity
  8
0
100
AcDbBlockBegin
  2
_D_3
 70
     0
 10
0.0
 20
0.0
 30
0.0
  3
_D_3
  1

  0
LINE
  5
A80
330
22A
100
AcDbEntity
  8
0
  6
Continuous
 62
     0
370
    -2
100
AcDbLine
 10
96.96092332480802
 20
73.77454828509946
 30
0.0
 11
103.8355031673276
 21
73.77454828509946
 31
0.0
  0
LINE
  5
A81
330
22A
100
AcDbEntity
  8
0
  6
Continuous
 62
     0
370
    -2
100
AcDbLine
 10
96.96092332480802
 20
50.29965929109946
 30
0.0
 11
103.8355031673276
 21
50.29965929109946
 31
0.0
  0
LINE
  5
A82
330
22A
100
AcDbEntity
  8
0
  6
Continuous
 62
     0
370
    -2
100
AcDbLine
 10
103.8355031673276
 20
73.64454828509946
 30
0.0
 11
103.8355031673276
 21
59.81245877650171
 31
0.0
  0
LINE
  5
A83
330
22A
100
AcDbEntity
  8
0
  6
Continuous
 62
     0
370
    -2
100
AcDbLine
 10
103.8355031673276
 20
50.42965929109946
 30
0.0
 11
103.8355031673276
 21
59.39258425803355
 31
0.0
  0
SOLID
  5
A84
330
22A
100
AcDbEntity
  8
0
  6
Continuous
 62
     0
100
AcDbTrace
 10
103.813836500661
 20
73.64454828509946
 30
0.0
 11
103.8571698339943
 21
73.64454828509946
 31
0.0
 12
103.8355031673276
 22
73.77454828509946
 32
0.0
 13
103.8355031673276
 23
73.77454828509946
 33
0.0
  0
SOLID
  5
A85
330
22A
100
AcDbEntity
  8
0
  6
Continuous
 62
     0
100
AcDbTrace
 10
103.813836500661
 20
50.42965929109946
 30
0.0
 11
103.8571698339943
 21
50.42965929109946
 31
0.0
 12
103.8355031673276
 22
50.29965929109946
 32
0.0
 13
103.8355031673276
 23
50.29965929109946
 33
0.0
  0
MTEXT
  5
A86
330
22A
100
AcDbEntity
  8
0
  6
Continuous
 62
     0
370
    18
100
AcDbMText
 10
103.8355031673276
 20
59.74475044316839
 30
0.0
 40
0.2708333333333333
 41
0.0
 71
     2
 72
     1
  1
\A1;187.8 REF
  7
SLDTEXTSTYLE0
 73
     1
 44
1.0
  0
POINT
  5
A87
330
22A
100
AcDbEntity
  8
Defpoints
  6
Continuous
 62
     0
100
AcDbPoint
 10
96.898423324808
 20
73.77454828509946
 30
0.0
  0
POINT
  5
A88
330
22A
100
AcDbEntity
  8
Defpoints
  6
Continuous
 62
     0
100
AcDbPoint
 10
96.898423324808
 20
50.29965929109946
 30
0.0
  0
POINT
  5
A89
330
22A
100
AcDbEntity
  8
Defpoints
  6
Continuous
 62
     0
100
AcDbPoint
 10
103.8355031673276
 20
50.29965929109946
 30
0.0
  0
ENDBLK
  5
22C
330
22A
100
AcDbEntity
  8
0
100
AcDbBlockEnd
  0
BLOCK
  5
265
330
264
100
AcDbEntity
  8
0
100
AcDbBlockBegin
  2
_D_4
 70
     0
 10
0.0
 20
0.0
 30
0.0
  3
_D_4
  1

  0
LINE
  5
A8A
330
264
100
AcDbEntity
  8
0
  6
Continuous
 62
     0
370
    -2
100
AcDbLine
 10
29.10878041519861
 20
9.874602144391221
 30
0.0
 11
29.10878041519861
 21
-9.417452913345979
 31
0.0
  0
LINE
  5
A8B
330
264
100
AcDbEntity
  8
0
  6
Continuous
 62
     0
370
    -2
100
AcDbLine
 10
5.456688446448623
 20
-2.514588886858728
 30
0.0
 11
5.456688446448623
 21
-9.417452913345977
 31
0.0
  0
LINE
  5
A8C
330
264
100
AcDbEntity
  8
0
  6
Continuous
 62
     0
370
    -2
100
AcDbLine
 10
28.97878041519861
 20
-9.417452913345977
 30
0.0
 11
19.80516050300959
 21
-9.417452913345977
 31
0.0
  0
LINE
  5
A8D
330
264
100
AcDbEntity
  8
0
  6
Continuous
 62
     0
370
    -2
100
AcDbLine
 10
5.586688446448623
 20
-9.417452913345977
 30
0.0
 11
18.87279548771387
 21
-9.417452913345977
 31
0.0
  0
SOLID
  5
A8E
330
264
100
AcDbEntity
  8
0
  6
Continuous
 62
     0
100
AcDbTrace
 10
28.97878041519861
 20
-9.39578624667931
 30
0.0
 11
28.97878041519861
 21
-9.439119580012643
 31
0.0
 12
29.10878041519861
 22
-9.417452913345977
 32
0.0
 13
29.10878041519861
 23
-9.417452913345977
 33
0.0
  0
SOLID
  5
A8F
330
264
100
AcDbEntity
  8
0
  6
Continuous
 62
     0
100
AcDbTrace
 10
5.586688446448623
 20
-9.39578624667931
 30
0.0
 11
5.586688446448623
 21
-9.439119580012643
 31
0.0
 12
5.456688446448623
 22
-9.417452913345977
 32
0.0
 13
5.456688446448623
 23
-9.417452913345977
 33
0.0
  0
MTEXT
  5
A90
330
264
100
AcDbEntity
  8
0
  6
Continuous
 62
     0
370
    18
100
AcDbMText
 10
19.33897799536173
 20
-9.27522398744523
 30
0.0
 40
0.2708333333333333
 41
0.0
 71
     2
 72
     1
  1
\A1;189.2
  7
SLDTEXTSTYLE0
 73
     1
 44
1.0
  0
POINT
  5
A91
330
264
100
AcDbEntity
  8
Defpoints
  6
Continuous
 62
     0
100
AcDbPoint
 10
29.10878041519861
 20
9.937102144391221
 30
0.0
  0
POINT
  5
A92
330
264
100
AcDbEntity
  8
Defpoints
  6
Continuous
 62
     0
100
AcDbPoint
 10
5.456688446448623
 20
-2.452088886858728
 30
0.0
  0
POINT
  5
A93
330
264
100
AcDbEntity
  8
Defpoints
  6
Continuous
 62
     0
100
AcDbPoint
 10
5.456688446448623
 20
-9.417452913345977
 30
0.0
  0
ENDBLK
  5
266
330
264
100
AcDbEntity
  8
0
100
AcDbBlockEnd
  0
BLOCK
  5
270
330
26F
100
AcDbEntity
  8
0
100
AcDbBlockBegin
  2
_D_5
 70
     0
 10
0.0
 20
0.0
 30
0.0
  3
_D_5
  1

  0
LINE
  5
A94
330
26F
100
AcDbEntity
  8
0
  6
Continuous
 62
     0
370
    -2
100
AcDbLine
 10
29.04628041519861
 20
9.937102144391221
 30
0.0
 11
-3.372322262212891
 21
9.93710214439123
 31
0.0
  0
LINE
  5
A95
330
26F
100
AcDbEntity
  8
0
  6
Continuous
 62
     0
370
    -2
100
AcDbLine
 10
6.125025573948633
 20
-2.452088886858835
 30
0.0
 11
-3.372322262212889
 21
-2.452088886858832
 31
0.0
  0
LINE
  5
A96
330
26F
100
AcDbEntity
  8
0
  6
Continuous
 62
     0
370
    -2
100
AcDbLine
 10
-3.372322262212887
 20
9.80710214439123
 30
0.0
 11
-3.372322262212889
 21
3.698877647585892
 31
0.0
  0
LINE
  5
A97
330
26F
100
AcDbEntity
  8
0
  6
Continuous
 62
     0
370
    -2
100
AcDbLine
 10
-3.37232226221289
 20
-2.322088886858832
 30
0.0
 11
-3.372322262212889
 21
3.27900312911773
 31
0.0
  0
SOLID
  5
A98
330
26F
100
AcDbEntity
  8
0
  6
Continuous
 62
     0
100
AcDbTrace
 10
-3.393988928879554
 20
9.80710214439123
 30
0.0
 11
-3.350655595546221
 21
9.80710214439123
 31
0.0
 12
-3.372322262212887
 22
9.93710214439123
 32
0.0
 13
-3.372322262212887
 23
9.93710214439123
 33
0.0
  0
SOLID
  5
A99
330
26F
100
AcDbEntity
  8
0
  6
Continuous
 62
     0
100
AcDbTrace
 10
-3.393988928879557
 20
-2.322088886858832
 30
0.0
 11
-3.350655595546224
 21
-2.322088886858832
 31
0.0
 12
-3.37232226221289
 22
-2.452088886858832
 32
0.0
 13
-3.37232226221289
 23
-2.452088886858832
 33
0.0
  0
MTEXT
  5
A9A
330
26F
100
AcDbEntity
  8
0
  6
Continuous
 62
     0
370
    18
100
AcDbMText
 10
-3.37232226221289
 20
3.631169314252558
 30
0.0
 40
0.2708333333333333
 41
0.0
 71
     2
 72
     1
  1
\A1;99.1
  7
SLDTEXTSTYLE0
 73
     1
 44
1.0
  0
POINT
  5
A9B
330
26F
100
AcDbEntity
  8
Defpoints
  6
Continuous
 62
     0
100
AcDbPoint
 10
29.10878041519861
 20
9.937102144391221
 30
0.0
  0
POINT
  5
A9C
330
26F
100
AcDbEntity
  8
Defpoints
  6
Continuous
 62
     0
100
AcDbPoint
 10
6.187525573948633
 20
-2.452088886858835
 30
0.0
  0
POINT
  5
A9D
330
26F
100
AcDbEntity
  8
Defpoints
  6
Continuous
 62
     0
100
AcDbPoint
 10
-3.37232226221289
 20
-2.452088886858832
 30
0.0
  0
ENDBLK
  5
271
330
26F
100
AcDbEntity
  8
0
100
AcDbBlockEnd
  0
BLOCK
  5
27B
330
27A
100
AcDbEntity
  8
0
100
AcDbBlockBegin
  2
_D_6
 70
     0
 10
0.0
 20
0.0
 30
0.0
  3
_D_6
  1

  0
LINE
  5
A9E
330
27A
100
AcDbEntity
  8
0
  6
Continuous
 62
     0
370
    -2
100
AcDbLine
 10
7.14193841449979
 20
25.44866581785767
 30
0.0
 11
-6.080287810110359
 21
25.44866581785767
 31
0.0
  0
LINE
  5
A9F
330
27A
100
AcDbEntity
  8
0
  6
Continuous
 62
     0
370
    -2
100
AcDbLine
 10
6.125025573948633
 20
-2.452088886858835
 30
0.0
 11
-6.080287810110364
 21
-2.452088886858831
 31
0.0
  0
LINE
  5
AA0
330
27A
100
AcDbEntity
  8
0
  6
Continuous
 62
     0
370
    -2
100
AcDbLine
 10
-6.080287810110358
 20
25.31866581785767
 30
0.0
 11
-6.080287810110359
 21
20.85334436610158
 31
0.0
  0
LINE
  5
AA1
330
27A
100
AcDbEntity
  8
0
  6
Continuous
 62
     0
370
    -2
100
AcDbLine
 10
-6.080287810110364
 20
-2.322088886858831
 30
0.0
 11
-6.080287810110359
 21
20.43346984763342
 31
0.0
  0
SOLID
  5
AA2
330
27A
100
AcDbEntity
  8
0
  6
Continuous
 62
     0
100
AcDbTrace
 10
-6.101954476777025
 20
25.31866581785767
 30
0.0
 11
-6.058621143443692
 21
25.31866581785767
 31
0.0
 12
-6.080287810110358
 22
25.44866581785767
 32
0.0
 13
-6.080287810110358
 23
25.44866581785767
 33
0.0
  0
SOLID
  5
AA3
330
27A
100
AcDbEntity
  8
0
  6
Continuous
 62
     0
100
AcDbTrace
 10
-6.101954476777031
 20
-2.322088886858831
 30
0.0
 11
-6.058621143443698
 21
-2.322088886858831
 31
0.0
 12
-6.080287810110364
 22
-2.452088886858831
 32
0.0
 13
-6.080287810110364
 23
-2.452088886858831
 33
0.0
  0
MTEXT
  5
AA4
330
27A
100
AcDbEntity
  8
0
  6
Continuous
 62
     0
370
    18
100
AcDbMText
 10
-6.080287810110363
 20
20.78563603276824
 30
0.0
 40
0.2708333333333333
 41
0.0
 71
     2
 72
     1
  1
\A1;223.2
  7
SLDTEXTSTYLE0
 73
     1
 44
1.0
  0
POINT
  5
AA5
330
27A
100
AcDbEntity
  8
Defpoints
  6
Continuous
 62
     0
100
AcDbPoint
 10
7.20443841449979
 20
25.44866581785767
 30
0.0
  0
POINT
  5
AA6
330
27A
100
AcDbEntity
  8
Defpoints
  6
Continuous
 62
     0
100
AcDbPoint
 10
6.187525573948633
 20
-2.452088886858835
 30
0.0
  0
POINT
  5
AA7
330
27A
100
AcDbEntity
  8
Defpoints
  6
Continuous
 62
     0
100
AcDbPoint
 10
-6.080287810110364
 20
-2.452088886858831
 30
0.0
  0
ENDBLK
  5
27C
330
27A
100
AcDbEntity
  8
0
100
AcDbBlockEnd
  0
BLOCK
  5
286
330
285
100
AcDbEntity
  8
0
100
AcDbBlockBegin
  2
_D_7
 70
     0
 10
0.0
 20
0.0
 30
0.0
  3
_D_7
  1

  0
LINE
  5
AA8
330
285
100
AcDbEntity
  8
0
  6
Continuous
 62
     0
370
    -2
100
AcDbLine
 10
5.394188446448623
 20
27.98978034039127
 30
0.0
 11
-10.94004572677981
 21
27.98978034039128
 31
0.0
  0
LINE
  5
AA9
330
285
100
AcDbEntity
  8
0
  6
Continuous
 62
     0
370
    -2
100
AcDbLine
 10
5.394188446448623
 20
-2.452088886858728
 30
0.0
 11
-10.94004572677981
 21
-2.452088886858724
 31
0.0
  0
LINE
  5
AAA
330
285
100
AcDbEntity
  8
0
  6
Continuous
 62
     0
370
    -2
100
AcDbLine
 10
-10.94004572677981
 20
27.85978034039128
 30
0.0
 11
-10.94004572677981
 21
14.0797990531952
 31
0.0
  0
LINE
  5
AAB
330
285
100
AcDbEntity
  8
0
  6
Continuous
 62
     0
370
    -2
100
AcDbLine
 10
-10.94004572677981
 20
-2.322088886858724
 30
0.0
 11
-10.94004572677981
 21
13.65992453472704
 31
0.0
  0
SOLID
  5
AAC
330
285
100
AcDbEntity
  8
0
  6
Continuous
 62
     0
100
AcDbTrace
 10
-10.96171239344647
 20
27.85978034039128
 30
0.0
 11
-10.91837906011314
 21
27.85978034039128
 31
0.0
 12
-10.94004572677981
 22
27.98978034039128
 32
0.0
 13
-10.94004572677981
 23
27.98978034039128
 33
0.0
  0
SOLID
  5
AAD
330
285
100
AcDbEntity
  8
0
  6
Continuous
 62
     0
100
AcDbTrace
 10
-10.96171239344648
 20
-2.322088886858724
 30
0.0
 11
-10.91837906011315
 21
-2.322088886858724
 31
0.0
 12
-10.94004572677981
 22
-2.452088886858724
 32
0.0
 13
-10.94004572677981
 23
-2.452088886858724
 33
0.0
  0
MTEXT
  5
AAE
330
285
100
AcDbEntity
  8
0
  6
Continuous
 62
     0
370
    18
100
AcDbMText
 10
-10.94004572677981
 20
14.01209071986186
 30
0.0
 40
0.2708333333333333
 41
0.0
 71
     2
 72
     1
  1
\A1;243.5
  7
SLDTEXTSTYLE0
 73
     1
 44
1.0
  0
POINT
  5
AAF
330
285
100
AcDbEntity
  8
Defpoints
  6
Continuous
 62
     0
100
AcDbPoint
 10
5.456688446448623
 20
27.98978034039127
 30
0.0
  0
POINT
  5
AB0
330
285
100
AcDbEntity
  8
Defpoints
  6
Continuous
 62
     0
100
AcDbPoint
 10
5.456688446448623
 20
-2.452088886858728
 30
0.0
  0
POINT
  5
AB1
330
285
100
AcDbEntity
  8
Defpoints
  6
Continuous
 62
     0
100
AcDbPoint
 10
-10.94004572677981
 20
-2.452088886858724
 30
0.0
  0
ENDBLK
  5
287
330
285
100
AcDbEntity
  8
0
100
AcDbBlockEnd
  0
BLOCK
  5
291
330
290
100
AcDbEntity
  8
0
100
AcDbBlockBegin
  2
_D_8
 70
     0
 10
0.0
 20
0.0
 30
0.0
  3
_D_8
  1

  0
LINE
  5
AB2
330
290
100
AcDbEntity
  8
0
  6
Continuous
 62
     0
370
    -2
100
AcDbLine
 10
52.10512126269863
 20
28.05228034039143
 30
0.0
 11
52.10512126269863
 21
38.71072191519463
 31
0.0
  0
LINE
  5
AB3
330
290
100
AcDbEntity
  8
0
  6
Continuous
 62
     0
370
    -2
100
AcDbLine
 10
5.456688446448623
 20
28.05228034039128
 30
0.0
 11
5.456688446448624
 21
38.71072191519463
 31
0.0
  0
LINE
  5
AB4
330
290
100
AcDbEntity
  8
0
  6
Continuous
 62
     0
370
    -2
100
AcDbLine
 10
51.97512126269863
 20
38.71072191519463
 30
0.0
 11
29.67532341753377
 21
38.71072191519463
 31
0.0
  0
LINE
  5
AB5
330
290
100
AcDbEntity
  8
0
  6
Continuous
 62
     0
370
    -2
100
AcDbLine
 10
5.586688446448624
 20
38.71072191519463
 30
0.0
 11
28.70614513745219
 21
38.71072191519463
 31
0.0
  0
SOLID
  5
AB6
330
290
100
AcDbEntity
  8
0
  6
Continuous
 62
     0
100
AcDbTrace
 10
51.97512126269863
 20
38.73238858186129
 30
0.0
 11
51.97512126269863
 21
38.68905524852796
 31
0.0
 12
52.10512126269863
 22
38.71072191519463
 32
0.0
 13
52.10512126269863
 23
38.71072191519463
 33
0.0
  0
SOLID
  5
AB7
330
290
100
AcDbEntity
  8
0
  6
Continuous
 62
     0
100
AcDbTrace
 10
5.586688446448624
 20
38.73238858186129
 30
0.0
 11
5.586688446448624
 21
38.68905524852796
 31
0.0
 12
5.456688446448624
 22
38.71072191519463
 32
0.0
 13
5.456688446448624
 23
38.71072191519463
 33
0.0
  0
MTEXT
  5
AB8
330
290
100
AcDbEntity
  8
0
  6
Continuous
 62
     0
370
    18
100
AcDbMText
 10
29.19073427749298
 20
38.85295084109537
 30
0.0
 40
0.2708333333333333
 41
0.0
 71
     2
 72
     1
  1
\A1;373.2
  7
SLDTEXTSTYLE0
 73
     1
 44
1.0
  0
POINT
  5
AB9
330
290
100
AcDbEntity
  8
Defpoints
  6
Continuous
 62
     0
100
AcDbPoint
 10
52.10512126269863
 20
27.98978034039143
 30
0.0
  0
POINT
  5
ABA
330
290
100
AcDbEntity
  8
Defpoints
  6
Continuous
 62
     0
100
AcDbPoint
 10
5.456688446448623
 20
27.98978034039127
 30
0.0
  0
POINT
  5
ABB
330
290
100
AcDbEntity
  8
Defpoints
  6
Continuous
 62
     0
100
AcDbPoint
 10
5.456688446448624
 20
38.71072191519463
 30
0.0
  0
ENDBLK
  5
292
330
290
100
AcDbEntity
  8
0
100
AcDbBlockEnd
  0
BLOCK
  5
29C
330
29B
100
AcDbEntity
  8
0
100
AcDbBlockBegin
  2
_D_9
 70
     0
 10
0.0
 20
0.0
 30
0.0
  3
_D_9
  1

  0
LINE
  5
ABC
330
29B
100
AcDbEntity
  8
0
  6
Continuous
 62
     0
370
    -2
100
AcDbLine
 10
3.129881796956351
 20
0.7054970387592228
 30
0.0
 11
-2.84841528246036
 21
0.7054970387592245
 31
0.0
  0
LINE
  5
ABD
330
29B
100
AcDbEntity
  8
0
  6
Continuous
 62
     0
370
    -2
100
AcDbLine
 10
2.111214978831381
 20
-2.668367508740814
 30
0.0
 11
-2.84841528246036
 21
-2.668367508740813
 31
0.0
  0
LINE
  5
ABE
330
29B
100
AcDbEntity
  8
0
  6
Continuous
 62
     0
370
    -2
100
AcDbLine
 10
-2.72341528246036
 20
0.5754970387592243
 30
0.0
 11
-2.72341528246036
 21
-2.538367508740813
 31
0.0
  0
LINE
  5
ABF
330
29B
100
AcDbEntity
  8
0
  6
Continuous
 62
     0
370
    -2
100
AcDbLine
 10
-2.72341528246036
 20
-2.668367508740813
 30
0.0
 11
-2.723415282460361
 21
-5.821585618976981
 31
0.0
  0
LINE
  5
AC0
330
29B
100
AcDbEntity
  8
0
  6
Continuous
 62
     0
370
    -2
100
AcDbLine
 10
-2.723415282460361
 20
-5.821585618976981
 30
0.0
 11
-2.853415282460361
 21
-5.821585618976981
 31
0.0
  0
SOLID
  5
AC1
330
29B
100
AcDbEntity
  8
0
  6
Continuous
 62
     0
100
AcDbTrace
 10
-2.745081949127026
 20
0.5754970387592243
 30
0.0
 11
-2.701748615793693
 21
0.5754970387592243
 31
0.0
 12
-2.72341528246036
 22
0.7054970387592244
 32
0.0
 13
-2.72341528246036
 23
0.7054970387592244
 33
0.0
  0
SOLID
  5
AC2
330
29B
100
AcDbEntity
  8
0
  6
Continuous
 62
     0
100
AcDbTrace
 10
-2.745081949127027
 20
-2.538367508740813
 30
0.0
 11
-2.701748615793694
 21
-2.538367508740813
 31
0.0
 12
-2.72341528246036
 22
-2.668367508740813
 32
0.0
 13
-2.72341528246036
 23
-2.668367508740813
 33
0.0
  0
MTEXT
  5
AC3
330
29B
100
AcDbEntity
  8
0
  6
Continuous
 62
     0
370
    18
100
AcDbMText
 10
-3.614771125046658
 20
-5.631947051109318
 30
0.0
 40
0.3611111111111111
 41
0.0
 71
     2
 72
     1
  1
\A1;26.991
 73
     1
 44
1.0
  0
POINT
  5
AC4
330
29B
100
AcDbEntity
  8
Defpoints
  6
Continuous
 62
     0
100
AcDbPoint
 10
3.179881796956351
 20
0.7054970387592228
 30
0.0
  0
POINT
  5
AC5
330
29B
100
AcDbEntity
  8
Defpoints
  6
Continuous
 62
     0
100
AcDbPoint
 10
2.161214978831381
 20
-2.668367508740814
 30
0.0
  0
POINT
  5
AC6
330
29B
100
AcDbEntity
  8
Defpoints
  6
Continuous
 62
     0
100
AcDbPoint
 10
-2.72341528246036
 20
-2.668367508740813
 30
0.0
  0
ENDBLK
  5
29D
330
29B
100
AcDbEntity
  8
0
100
AcDbBlockEnd
  0
BLOCK
  5
2A9
330
2A8
100
AcDbEntity
  8
0
100
AcDbBlockBegin
  2
_D_10
 70
     0
 10
0.0
 20
0.0
 30
0.0
  3
_D_10
  1

  0
LINE
  5
AC7
330
2A8
100
AcDbEntity
  8
0
  6
Continuous
 62
     0
370
    -2
100
AcDbLine
 10
7.20443841449979
 20
-0.7691203311143753
 30
0.0
 11
7.20443841449979
 21
-5.591882741620747
 31
0.0
  0
LINE
  5
AC8
330
2A8
100
AcDbEntity
  8
0
  6
Continuous
 62
     0
370
    -2
100
AcDbLine
 10
5.456688446448623
 20
-4.145808874672641
 30
0.0
 11
5.456688446448623
 21
-5.591882741620747
 31
0.0
  0
LINE
  5
AC9
330
2A8
100
AcDbEntity
  8
0
  6
Continuous
 62
     0
370
    -2
100
AcDbLine
 10
5.586688446448623
 20
-5.466882741620747
 30
0.0
 11
7.07443841449979
 21
-5.466882741620747
 31
0.0
  0
LINE
  5
ACA
330
2A8
100
AcDbEntity
  8
0
  6
Continuous
 62
     0
370
    -2
100
AcDbLine
 10
7.20443841449979
 20
-5.466882741620747
 30
0.0
 11
13.8739743915766
 21
-5.466882741620747
 31
0.0
  0
SOLID
  5
ACB
330
2A8
100
AcDbEntity
  8
0
  6
Continuous
 62
     0
100
AcDbTrace
 10
5.586688446448623
 20
-5.44521607495408
 30
0.0
 11
5.586688446448623
 21
-5.488549408287413
 31
0.0
 12
5.456688446448623
 22
-5.466882741620747
 32
0.0
 13
5.456688446448623
 23
-5.466882741620747
 33
0.0
  0
SOLID
  5
ACC
330
2A8
100
AcDbEntity
  8
0
  6
Continuous
 62
     0
100
AcDbTrace
 10
7.07443841449979
 20
-5.44521607495408
 30
0.0
 11
7.07443841449979
 21
-5.488549408287413
 31
0.0
 12
7.20443841449979
 22
-5.466882741620747
 32
0.0
 13
7.20443841449979
 23
-5.466882741620747
 33
0.0
  0
MTEXT
  5
ACD
330
2A8
100
AcDbEntity
  8
0
  6
Continuous
 62
     0
370
    18
100
AcDbMText
 10
14.65521466652184
 20
-5.277244173753083
 30
0.0
 40
0.3611111111111111
 41
0.0
 71
     2
 72
     1
  1
\A1;13.982
 73
     1
 44
1.0
  0
POINT
  5
ACE
330
2A8
100
AcDbEntity
  8
Defpoints
  6
Continuous
 62
     0
100
AcDbPoint
 10
7.20443841449979
 20
-0.7191203311143753
 30
0.0
  0
POINT
  5
ACF
330
2A8
100
AcDbEntity
  8
Defpoints
  6
Continuous
 62
     0
100
AcDbPoint
 10
5.456688446448623
 20
-4.095808874672641
 30
0.0
  0
POINT
  5
AD0
330
2A8
100
AcDbEntity
  8
Defpoints
  6
Continuous
 62
     0
100
AcDbPoint
 10
5.456688446448623
 20
-5.466882741620747
 30
0.0
  0
ENDBLK
  5
2AA
330
2A8
100
AcDbEntity
  8
0
100
AcDbBlockEnd
  0
BLOCK
  5
2B4
330
2B3
100
AcDbEntity
  8
0
100
AcDbBlockBegin
  2
_D_11
 70
     0
 10
0.0
 20
0.0
 30
0.0
  3
_D_11
  1

  0
LINE
  5
AD1
330
2B3
100
AcDbEntity
  8
0
  6
Continuous
 62
     0
370
    -2
100
AcDbLine
 10
5.456688446448623
 20
-2.514588886858728
 30
0.0
 11
5.456688446448622
 21
-11.2810995955202
 31
0.0
  0
LINE
  5
AD2
330
2B3
100
AcDbEntity
  8
0
  6
Continuous
 62
     0
370
    -2
100
AcDbLine
 10
50.35561731707362
 20
0.8592756606412415
 30
0.0
 11
50.35561731707362
 21
-11.2810995955202
 31
0.0
  0
LINE
  5
AD3
330
2B3
100
AcDbEntity
  8
0
  6
Continuous
 62
     0
370
    -2
100
AcDbLine
 10
5.586688446448622
 20
-11.2810995955202
 30
0.0
 11
28.70614513745222
 21
-11.2810995955202
 31
0.0
  0
LINE
  5
AD4
330
2B3
100
AcDbEntity
  8
0
  6
Continuous
 62
     0
370
    -2
100
AcDbLine
 10
50.22561731707362
 20
-11.2810995955202
 30
0.0
 11
29.6753234175338
 21
-11.2810995955202
 31
0.0
  0
SOLID
  5
AD5
330
2B3
100
AcDbEntity
  8
0
  6
Continuous
 62
     0
100
AcDbTrace
 10
5.586688446448622
 20
-11.25943292885353
 30
0.0
 11
5.586688446448622
 21
-11.30276626218686
 31
0.0
 12
5.456688446448622
 22
-11.2810995955202
 32
0.0
 13
5.456688446448622
 23
-11.2810995955202
 33
0.0
  0
SOLID
  5
AD6
330
2B3
100
AcDbEntity
  8
0
  6
Continuous
 62
     0
100
AcDbTrace
 10
50.22561731707362
 20
-11.25943292885353
 30
0.0
 11
50.22561731707362
 21
-11.30276626218686
 31
0.0
 12
50.35561731707362
 22
-11.2810995955202
 32
0.0
 13
50.35561731707362
 23
-11.2810995955202
 33
0.0
  0
MTEXT
  5
AD7
330
2B3
100
AcDbEntity
  8
0
  6
Continuous
 62
     0
370
    18
100
AcDbMText
 10
29.19073427749301
 20
-11.13887066961945
 30
0.0
 40
0.2708333333333333
 41
0.0
 71
     2
 72
     1
  1
\A1;359.2
  7
SLDTEXTSTYLE0
 73
     1
 44
1.0
  0
POINT
  5
AD8
330
2B3
100
AcDbEntity
  8
Defpoints
  6
Continuous
 62
     0
100
AcDbPoint
 10
5.456688446448623
 20
-2.452088886858728
 30
0.0
  0
POINT
  5
AD9
330
2B3
100
AcDbEntity
  8
Defpoints
  6
Continuous
 62
     0
100
AcDbPoint
 10
50.35561731707362
 20
0.9217756606412415
 30
0.0
  0
POINT
  5
ADA
330
2B3
100
AcDbEntity
  8
Defpoints
  6
Continuous
 62
     0
100
AcDbPoint
 10
50.35561731707362
 20
-11.2810995955202
 30
0.0
  0
ENDBLK
  5
2B5
330
2B3
100
AcDbEntity
  8
0
100
AcDbBlockEnd
  0
BLOCK
  5
2BF
330
2BE
100
AcDbEntity
  8
0
100
AcDbBlockBegin
  2
_D_12
 70
     0
 10
0.0
 20
0.0
 30
0.0
  3
_D_12
  1

  0
LINE
  5
ADB
330
2BE
100
AcDbEntity
  8
0
  6
Continuous
 62
     0
370
    -2
100
AcDbLine
 10
6.250025573948633
 20
-2.452088886859044
 30
0.0
 11
15.43719840311367
 21
-2.452088886859047
 31
0.0
  0
LINE
  5
ADC
330
2BE
100
AcDbEntity
  8
0
  6
Continuous
 62
     0
370
    -2
100
AcDbLine
 10
12.01913372082357
 20
11.07340370564109
 30
0.0
 11
15.43719840311367
 21
11.07340370564109
 31
0.0
  0
LINE
  5
ADD
330
2BE
100
AcDbEntity
  8
0
  6
Continuous
 62
     0
370
    -2
100
AcDbLine
 10
15.43719840311367
 20
-2.322088886859047
 30
0.0
 11
15.43719840311367
 21
4.633599585392713
 31
0.0
  0
LINE
  5
ADE
330
2BE
100
AcDbEntity
  8
0
  6
Continuous
 62
     0
370
    -2
100
AcDbLine
 10
15.43719840311367
 20
10.94340370564109
 30
0.0
 11
15.43719840311367
 21
5.053474103860875
 31
0.0
  0
SOLID
  5
ADF
330
2BE
100
AcDbEntity
  8
0
  6
Continuous
 62
     0
100
AcDbTrace
 10
15.415531736447
 20
-2.322088886859047
 30
0.0
 11
15.45886506978033
 21
-2.322088886859047
 31
0.0
 12
15.43719840311367
 22
-2.452088886859047
 32
0.0
 13
15.43719840311367
 23
-2.452088886859047
 33
0.0
  0
SOLID
  5
AE0
330
2BE
100
AcDbEntity
  8
0
  6
Continuous
 62
     0
100
AcDbTrace
 10
15.415531736447
 20
10.94340370564109
 30
0.0
 11
15.45886506978034
 21
10.94340370564109
 31
0.0
 12
15.43719840311367
 22
11.07340370564109
 32
0.0
 13
15.43719840311367
 23
11.07340370564109
 33
0.0
  0
MTEXT
  5
AE1
330
2BE
100
AcDbEntity
  8
0
  6
Continuous
 62
     0
370
    18
100
AcDbMText
 10
15.43719840311367
 20
4.985765770527544
 30
0.0
 40
0.2708333333333333
 41
0.0
 71
     2
 72
     1
  1
\A1;108.2
  7
SLDTEXTSTYLE0
 73
     1
 44
1.0
  0
POINT
  5
AE2
330
2BE
100
AcDbEntity
  8
Defpoints
  6
Continuous
 62
     0
100
AcDbPoint
 10
6.187525573948633
 20
-2.452088886859044
 30
0.0
  0
POINT
  5
AE3
330
2BE
100
AcDbEntity
  8
Defpoints
  6
Continuous
 62
     0
100
AcDbPoint
 10
11.95663372082357
 20
11.07340370564109
 30
0.0
  0
POINT
  5
AE4
330
2BE
100
AcDbEntity
  8
Defpoints
  6
Continuous
 62
     0
100
AcDbPoint
 10
15.43719840311367
 20
11.07340370564109
 30
0.0
  0
ENDBLK
  5
2C0
330
2BE
100
AcDbEntity
  8
0
100
AcDbBlockEnd
  0
BLOCK
  5
2C9
330
2C8
100
AcDbEntity
  8
0
100
AcDbBlockBegin
  2
_D_13
 70
     0
 10
0.0
 20
0.0
 30
0.0
  3
_D_13
  1

  0
LINE
  5
AE5
330
2C8
100
AcDbEntity
  8
0
  6
Continuous
 62
     0
370
    -2
100
AcDbLine
 10
6.250025573948633
 20
-2.452088886859044
 30
0.0
 11
21.27938123549537
 21
-2.452088886859049
 31
0.0
  0
LINE
  5
AE6
330
2C8
100
AcDbEntity
  8
0
  6
Continuous
 62
     0
370
    -2
100
AcDbLine
 10
12.01913372082359
 20
14.20198729939119
 30
0.0
 11
21.27938123549537
 21
14.20198729939119
 31
0.0
  0
LINE
  5
AE7
330
2C8
100
AcDbEntity
  8
0
  6
Continuous
 62
     0
370
    -2
100
AcDbLine
 10
21.27938123549537
 20
-2.322088886859049
 30
0.0
 11
21.27938123549537
 21
7.173679077732636
 31
0.0
  0
LINE
  5
AE8
330
2C8
100
AcDbEntity
  8
0
  6
Continuous
 62
     0
370
    -2
100
AcDbLine
 10
21.27938123549537
 20
14.07198729939119
 30
0.0
 11
21.27938123549537
 21
7.593553596200798
 31
0.0
  0
SOLID
  5
AE9
330
2C8
100
AcDbEntity
  8
0
  6
Continuous
 62
     0
100
AcDbTrace
 10
21.2577145688287
 20
-2.322088886859049
 30
0.0
 11
21.30104790216203
 21
-2.322088886859049
 31
0.0
 12
21.27938123549537
 22
-2.452088886859049
 32
0.0
 13
21.27938123549537
 23
-2.452088886859049
 33
0.0
  0
SOLID
  5
AEA
330
2C8
100
AcDbEntity
  8
0
  6
Continuous
 62
     0
100
AcDbTrace
 10
21.2577145688287
 20
14.07198729939119
 30
0.0
 11
21.30104790216204
 21
14.07198729939119
 31
0.0
 12
21.27938123549537
 22
14.20198729939119
 32
0.0
 13
21.27938123549537
 23
14.20198729939119
 33
0.0
  0
MTEXT
  5
AEB
330
2C8
100
AcDbEntity
  8
0
  6
Continuous
 62
     0
370
    18
100
AcDbMText
 10
21.27938123549537
 20
7.525845262867468
 30
0.0
 40
0.2708333333333333
 41
0.0
 71
     2
 72
     1
  1
\A1;133.2
  7
SLDTEXTSTYLE0
 73
     1
 44
1.0
  0
POINT
  5
AEC
330
2C8
100
AcDbEntity
  8
Defpoints
  6
Continuous
 62
     0
100
AcDbPoint
 10
6.187525573948633
 20
-2.452088886859044
 30
0.0
  0
POINT
  5
AED
330
2C8
100
AcDbEntity
  8
Defpoints
  6
Continuous
 62
     0
100
AcDbPoint
 10
11.95663372082359
 20
14.20198729939119
 30
0.0
  0
POINT
  5
AEE
330
2C8
100
AcDbEntity
  8
Defpoints
  6
Continuous
 62
     0
100
AcDbPoint
 10
21.27938123549537
 20
14.20198729939119
 30
0.0
  0
ENDBLK
  5
2CA
330
2C8
100
AcDbEntity
  8
0
100
AcDbBlockEnd
  0
BLOCK
  5
2D3
330
2D2
100
AcDbEntity
  8
0
100
AcDbBlockBegin
  2
_D_14
 70
     0
 10
0.0
 20
0.0
 30
0.0
  3
_D_14
  1

  0
LINE
  5
AEF
330
2D2
100
AcDbEntity
  8
0
  6
Continuous
 62
     0
370
    -2
100
AcDbLine
 10
5.456688446448623
 20
28.05228034039128
 30
0.0
 11
5.456688446448623
 21
31.14299845062776
 31
0.0
  0
LINE
  5
AF0
330
2D2
100
AcDbEntity
  8
0
  6
Continuous
 62
     0
370
    -2
100
AcDbLine
 10
9.719070734573591
 20
14.0142006118912
 30
0.0
 11
9.719070734573593
 21
31.14299845062776
 31
0.0
  0
LINE
  5
AF1
330
2D2
100
AcDbEntity
  8
0
  6
Continuous
 62
     0
370
    -2
100
AcDbLine
 10
9.589070734573592
 20
31.14299845062776
 30
0.0
 11
5.586688446448623
 21
31.14299845062776
 31
0.0
  0
LINE
  5
AF2
330
2D2
100
AcDbEntity
  8
0
  6
Continuous
 62
     0
370
    -2
100
AcDbLine
 10
5.456688446448623
 20
31.14299845062776
 30
0.0
 11
2.659717340801028
 21
31.14299845062776
 31
0.0
  0
SOLID
  5
AF3
330
2D2
100
AcDbEntity
  8
0
  6
Continuous
 62
     0
100
AcDbTrace
 10
9.589070734573592
 20
31.16466511729442
 30
0.0
 11
9.589070734573592
 21
31.12133178396109
 31
0.0
 12
9.719070734573593
 22
31.14299845062776
 32
0.0
 13
9.719070734573593
 23
31.14299845062776
 33
0.0
  0
SOLID
  5
AF4
330
2D2
100
AcDbEntity
  8
0
  6
Continuous
 62
     0
100
AcDbTrace
 10
5.586688446448623
 20
31.16466511729442
 30
0.0
 11
5.586688446448623
 21
31.12133178396109
 31
0.0
 12
5.456688446448623
 22
31.14299845062776
 32
0.0
 13
5.456688446448623
 23
31.14299845062776
 33
0.0
  0
MTEXT
  5
AF5
330
2D2
100
AcDbEntity
  8
0
  6
Continuous
 62
     0
370
    18
100
AcDbMText
 10
2.303470336212313
 20
31.28522737652851
 30
0.0
 40
0.2708333333333333
 41
0.0
 71
     2
 72
     1
  1
\A1;34.1
  7
SLDTEXTSTYLE0
 73
     1
 44
1.0
  0
POINT
  5
AF6
330
2D2
100
AcDbEntity
  8
Defpoints
  6
Continuous
 62
     0
100
AcDbPoint
 10
5.456688446448623
 20
27.98978034039127
 30
0.0
  0
POINT
  5
AF7
330
2D2
100
AcDbEntity
  8
Defpoints
  6
Continuous
 62
     0
100
AcDbPoint
 10
9.719070734573591
 20
13.9517006118912
 30
0.0
  0
POINT
  5
AF8
330
2D2
100
AcDbEntity
  8
Defpoints
  6
Continuous
 62
     0
100
AcDbPoint
 10
9.719070734573593
 20
31.14299845062776
 30
0.0
  0
ENDBLK
  5
2D4
330
2D2
100
AcDbEntity
  8
0
100
AcDbBlockEnd
  0
BLOCK
  5
2DE
330
2DD
100
AcDbEntity
  8
0
100
AcDbBlockBegin
  2
_D_15
 70
     0
 10
0.0
 20
0.0
 30
0.0
  3
_D_15
  1

  0
LINE
  5
AF9
330
2DD
100
AcDbEntity
  8
0
  6
Continuous
 62
     0
370
    -2
100
AcDbLine
 10
5.456688446448623
 20
28.05228034039128
 30
0.0
 11
5.456688446448623
 21
33.96978169012415
 31
0.0
  0
LINE
  5
AFA
330
2DD
100
AcDbEntity
  8
0
  6
Continuous
 62
     0
370
    -2
100
AcDbLine
 10
12.2069204083236
 20
14.01420061189118
 30
0.0
 11
12.2069204083236
 21
33.96978169012415
 31
0.0
  0
LINE
  5
AFB
330
2DD
100
AcDbEntity
  8
0
  6
Continuous
 62
     0
370
    -2
100
AcDbLine
 10
12.0769204083236
 20
33.96978169012415
 30
0.0
 11
5.586688446448623
 21
33.96978169012415
 31
0.0
  0
LINE
  5
AFC
330
2DD
100
AcDbEntity
  8
0
  6
Continuous
 62
     0
370
    -2
100
AcDbLine
 10
5.456688446448623
 20
33.96978169012415
 30
0.0
 11
2.550370177590061
 21
33.96978169012415
 31
0.0
  0
SOLID
  5
AFD
330
2DD
100
AcDbEntity
  8
0
  6
Continuous
 62
     0
100
AcDbTrace
 10
12.0769204083236
 20
33.99144835679082
 30
0.0
 11
12.0769204083236
 21
33.94811502345748
 31
0.0
 12
12.2069204083236
 22
33.96978169012415
 32
0.0
 13
12.2069204083236
 23
33.96978169012415
 33
0.0
  0
SOLID
  5
AFE
330
2DD
100
AcDbEntity
  8
0
  6
Continuous
 62
     0
100
AcDbTrace
 10
5.586688446448623
 20
33.99144835679082
 30
0.0
 11
5.586688446448623
 21
33.94811502345748
 31
0.0
 12
5.456688446448623
 22
33.96978169012415
 32
0.0
 13
5.456688446448623
 23
33.96978169012415
 33
0.0
  0
MTEXT
  5
AFF
330
2DD
100
AcDbEntity
  8
0
  6
Continuous
 62
     0
370
    18
100
AcDbMText
 10
2.303470336212313
 20
34.1120106160249
 30
0.0
 40
0.2708333333333333
 41
0.0
 71
     2
 72
     1
  1
\A1;54
  7
SLDTEXTSTYLE0
 73
     1
 44
1.0
  0
POINT
  5
B00
330
2DD
100
AcDbEntity
  8
Defpoints
  6
Continuous
 62
     0
100
AcDbPoint
 10
5.456688446448623
 20
27.98978034039127
 30
0.0
  0
POINT
  5
B01
330
2DD
100
AcDbEntity
  8
Defpoints
  6
Continuous
 62
     0
100
AcDbPoint
 10
12.2069204083236
 20
13.95170061189119
 30
0.0
  0
POINT
  5
B02
330
2DD
100
AcDbEntity
  8
Defpoints
  6
Continuous
 62
     0
100
AcDbPoint
 10
12.2069204083236
 20
33.96978169012415
 30
0.0
  0
ENDBLK
  5
2DF
330
2DD
100
AcDbEntity
  8
0
100
AcDbBlockEnd
  0
BLOCK
  5
2E8
330
2E7
100
AcDbEntity
  8
0
100
AcDbBlockBegin
  2
SW_NOTE_4
 70
     0
 10
0.0
 20
0.0
 30
0.0
  3
SW_NOTE_4
  1

  0
MTEXT
  5
2EA
330
2E7
100
AcDbEntity
  8
0
  6
Continuous
 62
     0
370
     0
100
AcDbMText
 10
0.0233368140686775
 20
0.1185438536989753
 30
0.0
 40
0.25
 41
0.0
 71
     1
 72
     1
  1
 FLYPOINTS 3/8"-16 UNC
  7
SLDTEXTSTYLE0
 73
     1
 44
1.0
  0
MTEXT
  5
2EB
330
2E7
100
AcDbEntity
  8
0
  6
Continuous
 62
     0
370
     0
100
AcDbMText
 10
0.0233368140686775
 20
-0.2147894756059602
 30
0.0
 40
0.25
 41
0.0
 71
     1
 72
     1
  1
THREADED INSERT
  7
SLDTEXTSTYLE0
 73
     1
 44
1.0
  0
MTEXT
  5
2EC
330
2E7
100
AcDbEntity
  8
0
  6
Continuous
 62
     0
370
     0
100
AcDbMText
 10
0.0233368140686775
 20
-0.5481228049108956
 30
0.0
 40
0.25
 41
0.0
 71
     1
 72
     1
  1
           (4PLCS)
  7
SLDTEXTSTYLE0
 73
     1
 44
1.0
  0
ENDBLK
  5
2E9
330
2E7
100
AcDbEntity
  8
0
100
AcDbBlockEnd
  0
BLOCK
  5
30D
330
30C
100
AcDbEntity
  8
0
100
AcDbBlockBegin
  2
_D_16
 70
     0
 10
0.0
 20
0.0
 30
0.0
  3
_D_16
  1

  0
LINE
  5
B03
330
30C
100
AcDbEntity
  8
0
  6
Continuous
 62
     0
370
    -2
100
AcDbLine
 10
-43.74551113280828
 20
73.83861947585976
 30
0.0
 11
-43.74551113280828
 21
81.09252573374632
 31
0.0
  0
LINE
  5
B04
330
30C
100
AcDbEntity
  8
0
  6
Continuous
 62
     0
370
    -2
100
AcDbLine
 10
-13.30364190555829
 20
73.83861947585974
 30
0.0
 11
-13.30364190555829
 21
81.09252573374632
 31
0.0
  0
LINE
  5
B05
330
30C
100
AcDbEntity
  8
0
  6
Continuous
 62
     0
370
    -2
100
AcDbLine
 10
-43.61551113280827
 20
81.09252573374632
 30
0.0
 11
-29.03627872645886
 21
81.09252573374632
 31
0.0
  0
LINE
  5
B06
330
30C
100
AcDbEntity
  8
0
  6
Continuous
 62
     0
370
    -2
100
AcDbLine
 10
-13.43364190555829
 20
81.09252573374632
 30
0.0
 11
-27.40984078741512
 21
81.09252573374632
 31
0.0
  0
SOLID
  5
B07
330
30C
100
AcDbEntity
  8
0
  6
Continuous
 62
     0
100
AcDbTrace
 10
-43.61551113280827
 20
81.11419240041298
 30
0.0
 11
-43.61551113280827
 21
81.07085906707967
 31
0.0
 12
-43.74551113280828
 22
81.09252573374632
 32
0.0
 13
-43.74551113280828
 23
81.09252573374632
 33
0.0
  0
SOLID
  5
B08
330
30C
100
AcDbEntity
  8
0
  6
Continuous
 62
     0
100
AcDbTrace
 10
-13.43364190555829
 20
81.11419240041298
 30
0.0
 11
-13.43364190555829
 21
81.07085906707967
 31
0.0
 12
-13.30364190555829
 22
81.09252573374632
 32
0.0
 13
-13.30364190555829
 23
81.09252573374632
 33
0.0
  0
MTEXT
  5
B09
330
30C
100
AcDbEntity
  8
0
  6
Continuous
 62
     0
370
    18
100
AcDbMText
 10
-28.22305975693699
 20
81.23475465964707
 30
0.0
 40
0.2708333333333333
 41
0.0
 71
     2
 72
     1
  1
\A1;243.5 REF
  7
SLDTEXTSTYLE0
 73
     1
 44
1.0
  0
POINT
  5
B0A
330
30C
100
AcDbEntity
  8
Defpoints
  6
Continuous
 62
     0
100
AcDbPoint
 10
-43.74551113280828
 20
73.77611947585975
 30
0.0
  0
POINT
  5
B0B
330
30C
100
AcDbEntity
  8
Defpoints
  6
Continuous
 62
     0
100
AcDbPoint
 10
-13.30364190555829
 20
73.77611947585974
 30
0.0
  0
POINT
  5
B0C
330
30C
100
AcDbEntity
  8
Defpoints
  6
Continuous
 62
     0
100
AcDbPoint
 10
-13.30364190555829
 20
81.09252573374632
 30
0.0
  0
ENDBLK
  5
30E
330
30C
100
AcDbEntity
  8
0
100
AcDbBlockEnd
  0
BLOCK
  5
3D4
330
3D3
100
AcDbEntity
  8
0
100
AcDbBlockBegin
  2
_D_17
 70
     0
 10
0.0
 20
0.0
 30
0.0
  3
_D_17
  1

  0
LINE
  5
B0D
330
3D3
100
AcDbEntity
  8
0
  6
Continuous
 62
     0
370
    -2
100
AcDbLine
 10
-42.39922889954817
 20
11.68128929205931
 30
0.0
 11
-42.39922889954817
 21
-0.9304534600120959
 31
0.0
  0
LINE
  5
B0E
330
3D3
100
AcDbEntity
  8
0
  6
Continuous
 62
     0
370
    -2
100
AcDbLine
 10
-66.16645274454812
 20
0.149649922819691
 30
0.0
 11
-66.16645274454812
 21
-0.9304534600120959
 31
0.0
  0
LINE
  5
B0F
330
3D3
100
AcDbEntity
  8
0
  6
Continuous
 62
     0
370
    -2
100
AcDbLine
 10
-42.52922889954817
 20
-0.9304534600120959
 30
0.0
 11
-51.61121700114845
 21
-0.9304534600120959
 31
0.0
  0
LINE
  5
B10
330
3D3
100
AcDbEntity
  8
0
  6
Continuous
 62
     0
370
    -2
100
AcDbLine
 10
-66.03645274454812
 20
-0.9304534600120959
 30
0.0
 11
-52.47768795344847
 21
-0.9304534600120959
 31
0.0
  0
SOLID
  5
B11
330
3D3
100
AcDbEntity
  8
0
  6
Continuous
 62
     0
100
AcDbTrace
 10
-42.52922889954817
 20
-0.9087867933454292
 30
0.0
 11
-42.52922889954817
 21
-0.9521201266787626
 31
0.0
 12
-42.39922889954817
 22
-0.9304534600120959
 32
0.0
 13
-42.39922889954817
 23
-0.9304534600120959
 33
0.0
  0
SOLID
  5
B12
330
3D3
100
AcDbEntity
  8
0
  6
Continuous
 62
     0
100
AcDbTrace
 10
-66.03645274454812
 20
-0.9087867933454292
 30
0.0
 11
-66.03645274454812
 21
-0.9521201266787626
 31
0.0
 12
-66.16645274454812
 22
-0.9304534600120959
 32
0.0
 13
-66.16645274454812
 23
-0.9304534600120959
 33
0.0
  0
MTEXT
  5
B13
330
3D3
100
AcDbEntity
  8
0
  6
Continuous
 62
     0
370
    18
100
AcDbMText
 10
-52.04445247729847
 20
-0.7882245341113482
 30
0.0
 40
0.2708333333333333
 41
0.0
 71
     2
 72
     1
  1
\A1;190.1
  7
SLDTEXTSTYLE0
 73
     1
 44
1.0
  0
POINT
  5
B14
330
3D3
100
AcDbEntity
  8
Defpoints
  6
Continuous
 62
     0
100
AcDbPoint
 10
-42.39922889954817
 20
11.74378929205931
 30
0.0
  0
POINT
  5
B15
330
3D3
100
AcDbEntity
  8
Defpoints
  6
Continuous
 62
     0
100
AcDbPoint
 10
-66.16645274454812
 20
0.212149922819691
 30
0.0
  0
POINT
  5
B16
330
3D3
100
AcDbEntity
  8
Defpoints
  6
Continuous
 62
     0
100
AcDbPoint
 10
-66.16645274454812
 20
-0.9304534600120959
 30
0.0
  0
ENDBLK
  5
3D5
330
3D3
100
AcDbEntity
  8
0
100
AcDbBlockEnd
  0
BLOCK
  5
3DF
330
3DE
100
AcDbEntity
  8
0
100
AcDbBlockBegin
  2
_D_18
 70
     0
 10
0.0
 20
0.0
 30
0.0
  3
_D_18
  1

  0
LINE
  5
B17
330
3DE
100
AcDbEntity
  8
0
  6
Continuous
 62
     0
370
    -2
100
AcDbLine
 10
-42.46172889954817
 20
11.74378929205931
 30
0.0
 11
-69.31967085478442
 21
11.74378929205932
 31
0.0
  0
LINE
  5
B18
330
3DE
100
AcDbEntity
  8
0
  6
Continuous
 62
     0
370
    -2
100
AcDbLine
 10
-65.49811561704813
 20
0.2806590045592401
 30
0.0
 11
-69.31967085478442
 21
0.2806590045592411
 31
0.0
  0
LINE
  5
B19
330
3DE
100
AcDbEntity
  8
0
  6
Continuous
 62
     0
370
    -2
100
AcDbLine
 10
-69.31967085478442
 20
11.61378929205932
 30
0.0
 11
-69.31967085478442
 21
6.707642537091036
 31
0.0
  0
LINE
  5
B1A
330
3DE
100
AcDbEntity
  8
0
  6
Continuous
 62
     0
370
    -2
100
AcDbLine
 10
-69.31967085478442
 20
0.4106590045592412
 30
0.0
 11
-69.31967085478442
 21
6.287768018622873
 31
0.0
  0
SOLID
  5
B1B
330
3DE
100
AcDbEntity
  8
0
  6
Continuous
 62
     0
100
AcDbTrace
 10
-69.34133752145108
 20
11.61378929205932
 30
0.0
 11
-69.29800418811776
 21
11.61378929205932
 31
0.0
 12
-69.31967085478442
 22
11.74378929205932
 32
0.0
 13
-69.31967085478442
 23
11.74378929205932
 33
0.0
  0
SOLID
  5
B1C
330
3DE
100
AcDbEntity
  8
0
  6
Continuous
 62
     0
100
AcDbTrace
 10
-69.34133752145108
 20
0.4106590045592412
 30
0.0
 11
-69.29800418811776
 21
0.4106590045592412
 31
0.0
 12
-69.31967085478442
 22
0.2806590045592411
 32
0.0
 13
-69.31967085478442
 23
0.2806590045592411
 33
0.0
  0
MTEXT
  5
B1D
330
3DE
100
AcDbEntity
  8
0
  6
Continuous
 62
     0
370
    18
100
AcDbMText
 10
-69.31967085478442
 20
6.639934203757691
 30
0.0
 40
0.2708333333333333
 41
0.0
 71
     2
 72
     1
  1
\A1;91.7
  7
SLDTEXTSTYLE0
 73
     1
 44
1.0
  0
POINT
  5
B1E
330
3DE
100
AcDbEntity
  8
Defpoints
  6
Continuous
 62
     0
100
AcDbPoint
 10
-42.39922889954817
 20
11.74378929205931
 30
0.0
  0
POINT
  5
B1F
330
3DE
100
AcDbEntity
  8
Defpoints
  6
Continuous
 62
     0
100
AcDbPoint
 10
-65.43561561704812
 20
0.2806590045592401
 30
0.0
  0
POINT
  5
B20
330
3DE
100
AcDbEntity
  8
Defpoints
  6
Continuous
 62
     0
100
AcDbPoint
 10
-69.31967085478442
 20
0.2806590045592411
 30
0.0
  0
ENDBLK
  5
3E0
330
3DE
100
AcDbEntity
  8
0
100
AcDbBlockEnd
  0
BLOCK
  5
7C4
330
7B9
100
AcDbEntity
  8
0
100
AcDbBlockBegin
  2
*D25
 70
     1
 10
0.0
 20
0.0
 30
0.0
  3
*D25
  1

  0
LINE
  5
B49
330
7B9
100
AcDbEntity
  8
0
 62
     0
370
    -2
100
AcDbLine
 10
5.456688446448562
 20
73.82454828509937
 30
0.0
 11
5.456688446448563
 21
81.7647266507058
 31
0.0
  0
LINE
  5
B4A
330
7B9
100
AcDbEntity
  8
0
 62
     0
370
    -2
100
AcDbLine
 10
52.10512126269858
 20
73.82611947586004
 30
0.0
 11
52.10512126269858
 21
81.7647266507058
 31
0.0
  0
LINE
  5
B4B
330
7B9
100
AcDbEntity
  8
0
 62
     0
370
    -2
100
AcDbLine
 10
5.586688446448563
 20
81.63972665070579
 30
0.0
 11
28.25079759571716
 21
81.63972665070579
 31
0.0
  0
LINE
  5
B4C
330
7B9
100
AcDbEntity
  8
0
 62
     0
370
    -2
100
AcDbLine
 10
51.97512126269858
 20
81.63972665070579
 30
0.0
 11
29.31101211342998
 21
81.63972665070579
 31
0.0
  0
SOLID
  5
B4D
330
7B9
100
AcDbEntity
  8
0
 62
     0
100
AcDbTrace
 10
5.586688446448563
 20
81.66139331737246
 30
0.0
 11
5.586688446448563
 21
81.61805998403913
 31
0.0
 12
5.456688446448563
 22
81.63972665070579
 32
0.0
 13
5.456688446448563
 23
81.63972665070579
 33
0.0
  0
SOLID
  5
B4E
330
7B9
100
AcDbEntity
  8
0
 62
     0
100
AcDbTrace
 10
51.97512126269858
 20
81.66139331737246
 30
0.0
 11
51.97512126269858
 21
81.61805998403913
 31
0.0
 12
52.10512126269858
 22
81.63972665070579
 32
0.0
 13
52.10512126269858
 23
81.63972665070579
 33
0.0
  0
MTEXT
  5
B4F
330
7B9
100
AcDbEntity
  8
0
 62
     0
100
AcDbMText
 10
28.78090485457357
 20
81.63972665070579
 30
0.0
 40
0.3611111111111111
 41
0.0
 71
     5
 72
     1
  1
\A1;46.6
 73
     1
 44
1.0
  0
POINT
  5
B50
330
7B9
100
AcDbEntity
  8
Defpoints
 62
     0
100
AcDbPoint
 10
5.456688446448562
 20
73.77454828509937
 30
0.0
  0
POINT
  5
B51
330
7B9
100
AcDbEntity
  8
Defpoints
 62
     0
100
AcDbPoint
 10
52.10512126269858
 20
73.77611947586004
 30
0.0
  0
POINT
  5
B52
330
7B9
100
AcDbEntity
  8
Defpoints
 62
     0
100
AcDbPoint
 10
52.10512126269858
 20
81.63972665070579
 30
0.0
  0
ENDBLK
  5
7C5
330
7B9
100
AcDbEntity
  8
0
100
AcDbBlockEnd
  0
BLOCK
  5
841
330
836
100
AcDbEntity
  8
0
100
AcDbBlockBegin
  2
*D26
 70
     1
 10
0.0
 20
0.0
 30
0.0
  3
*D26
  1

  0
LINE
  5
B3F
330
836
100
AcDbEntity
  8
0
 62
     0
370
    -2
100
AcDbLine
 10
84.20894560605804
 20
61.40990096569886
 30
0.0
 11
58.91483957901235
 21
61.40990096569886
 31
0.0
  0
LINE
  5
B40
330
836
100
AcDbEntity
  8
0
 62
     0
370
    -2
100
AcDbLine
 10
66.40655409755793
 20
50.29965929109938
 30
0.0
 11
58.91483957901235
 21
50.29965929109938
 31
0.0
  0
LINE
  5
B41
330
836
100
AcDbEntity
  8
0
 62
     0
370
    -2
100
AcDbLine
 10
59.03983957901235
 20
61.27990096569886
 30
0.0
 11
59.03983957901235
 21
56.09877249942413
 31
0.0
  0
LINE
  5
B42
330
836
100
AcDbEntity
  8
0
 62
     0
370
    -2
100
AcDbLine
 10
59.03983957901235
 20
50.42965929109938
 30
0.0
 11
59.03983957901235
 21
55.61078775737413
 31
0.0
  0
SOLID
  5
B43
330
836
100
AcDbEntity
  8
0
 62
     0
100
AcDbTrace
 10
59.01817291234568
 20
61.27990096569886
 30
0.0
 11
59.06150624567902
 21
61.27990096569886
 31
0.0
 12
59.03983957901235
 22
61.40990096569886
 32
0.0
 13
59.03983957901235
 23
61.40990096569886
 33
0.0
  0
SOLID
  5
B44
330
836
100
AcDbEntity
  8
0
 62
     0
100
AcDbTrace
 10
59.01817291234568
 20
50.42965929109938
 30
0.0
 11
59.06150624567902
 21
50.42965929109938
 31
0.0
 12
59.03983957901235
 22
50.29965929109938
 32
0.0
 13
59.03983957901235
 23
50.29965929109938
 33
0.0
  0
MTEXT
  5
B45
330
836
100
AcDbEntity
  8
0
 62
     0
100
AcDbMText
 10
59.03983957901234
 20
55.85478012839914
 30
0.0
 40
0.3611111111111111
 41
0.0
 71
     5
 72
     1
  1
\A1;11.1
 73
     1
 44
1.0
  0
POINT
  5
B46
330
836
100
AcDbEntity
  8
Defpoints
 62
     0
100
AcDbPoint
 10
84.25894560605803
 20
61.40990096569886
 30
0.0
  0
POINT
  5
B47
330
836
100
AcDbEntity
  8
Defpoints
 62
     0
100
AcDbPoint
 10
66.45655409755793
 20
50.29965929109938
 30
0.0
  0
POINT
  5
B48
330
836
100
AcDbEntity
  8
Defpoints
 62
     0
100
AcDbPoint
 10
59.03983957901235
 20
50.29965929109938
 30
0.0
  0
ENDBLK
  5
842
330
836
100
AcDbEntity
  8
0
100
AcDbBlockEnd
  0
BLOCK
  5
85B
330
850
100
AcDbEntity
  8
0
100
AcDbBlockBegin
  2
*D27
 70
     1
 10
0.0
 20
0.0
 30
0.0
  3
*D27
  1

  0
LINE
  5
85E
330
850
100
AcDbEntity
  8
0
 62
     0
370
    -2
100
AcDbLine
 10
11.32724363116835
 20
2.684469851841474
 30
0.0
 11
11.32724363116835
 21
1.716970768144292
 31
0.0
  0
LINE
  5
85F
330
850
100
AcDbEntity
  8
0
 62
     0
370
    -2
100
AcDbLine
 10
11.54568113116835
 20
3.105719851841431
 30
0.0
 11
11.54568113116835
 21
1.716970768144292
 31
0.0
  0
LINE
  5
860
330
850
100
AcDbEntity
  8
0
 62
     0
370
    -2
100
AcDbLine
 10
11.19724363116834
 20
1.841970768144292
 30
0.0
 11
11.06724363116835
 21
1.841970768144292
 31
0.0
  0
LINE
  5
861
330
850
100
AcDbEntity
  8
0
 62
     0
370
    -2
100
AcDbLine
 10
11.67568113116835
 20
1.841970768144292
 30
0.0
 11
11.80568113116835
 21
1.841970768144292
 31
0.0
  0
SOLID
  5
862
330
850
100
AcDbEntity
  8
0
 62
     0
100
AcDbTrace
 10
11.19724363116834
 20
1.863637434810959
 30
0.0
 11
11.19724363116834
 21
1.820304101477626
 31
0.0
 12
11.32724363116835
 22
1.841970768144292
 32
0.0
 13
11.32724363116835
 23
1.841970768144292
 33
0.0
  0
SOLID
  5
863
330
850
100
AcDbEntity
  8
0
 62
     0
100
AcDbTrace
 10
11.67568113116835
 20
1.863637434810959
 30
0.0
 11
11.67568113116835
 21
1.820304101477626
 31
0.0
 12
11.54568113116835
 22
1.841970768144292
 32
0.0
 13
11.54568113116835
 23
1.841970768144292
 33
0.0
  0
MTEXT
  5
864
330
850
100
AcDbEntity
  8
0
 62
     0
100
AcDbMText
 10
12.1967201069218
 20
1.841970768144292
 30
0.0
 40
0.3611111111111111
 41
0.0
 71
     5
 72
     1
  1
\A1;0.2
 73
     1
 44
1.0
  0
POINT
  5
865
330
850
100
AcDbEntity
  8
Defpoints
 62
     0
100
AcDbPoint
 10
11.32724363116835
 20
2.734469851841474
 30
0.0
  0
POINT
  5
866
330
850
100
AcDbEntity
  8
Defpoints
 62
     0
100
AcDbPoint
 10
11.54568113116835
 20
3.155719851841431
 30
0.0
  0
POINT
  5
867
330
850
100
AcDbEntity
  8
Defpoints
 62
     0
100
AcDbPoint
 10
11.54568113116835
 20
1.841970768144292
 30
0.0
  0
ENDBLK
  5
85C
330
850
100
AcDbEntity
  8
0
100
AcDbBlockEnd
  0
BLOCK
  5
876
330
86A
100
AcDbEntity
  8
0
100
AcDbBlockBegin
  2
*D28
 70
     1
 10
0.0
 20
0.0
 30
0.0
  3
*D28
  1

  0
LINE
  5
879
330
86A
100
AcDbEntity
  8
0
 62
     0
370
    -2
100
AcDbLine
 10
11.27724363116834
 20
2.734469851841474
 30
0.0
 11
10.73546859728233
 21
2.734469851841474
 31
0.0
  0
LINE
  5
87A
330
86A
100
AcDbEntity
  8
0
 62
     0
370
    -2
100
AcDbLine
 10
11.49546213510536
 20
3.15656127743405
 30
0.0
 11
10.73546859728233
 21
3.15656127743405
 31
0.0
  0
LINE
  5
87B
330
86A
100
AcDbEntity
  8
0
 62
     0
370
    -2
100
AcDbLine
 10
10.86046859728233
 20
2.864469851841474
 30
0.0
 11
10.86046859728233
 21
3.02656127743405
 31
0.0
  0
LINE
  5
87C
330
86A
100
AcDbEntity
  8
0
 62
     0
370
    -2
100
AcDbLine
 10
10.86046859728233
 20
3.15656127743405
 30
0.0
 11
10.86046859728233
 21
3.28656127743405
 31
0.0
  0
LINE
  5
87D
330
86A
100
AcDbEntity
  8
0
 62
     0
370
    -2
100
AcDbLine
 10
10.86046859728233
 20
3.28656127743405
 30
0.0
 11
10.99046859728233
 21
3.28656127743405
 31
0.0
  0
SOLID
  5
87E
330
86A
100
AcDbEntity
  8
0
 62
     0
100
AcDbTrace
 10
10.83880193061567
 20
2.864469851841474
 30
0.0
 11
10.882135263949
 21
2.864469851841474
 31
0.0
 12
10.86046859728233
 22
2.734469851841474
 32
0.0
 13
10.86046859728233
 23
2.734469851841474
 33
0.0
  0
SOLID
  5
87F
330
86A
100
AcDbEntity
  8
0
 62
     0
100
AcDbTrace
 10
10.83880193061567
 20
3.02656127743405
 30
0.0
 11
10.882135263949
 21
3.02656127743405
 31
0.0
 12
10.86046859728233
 22
3.15656127743405
 32
0.0
 13
10.86046859728233
 23
3.15656127743405
 33
0.0
  0
MTEXT
  5
880
330
86A
100
AcDbEntity
  8
0
 62
     0
100
AcDbMText
 10
11.38396244122825
 20
3.286561277434052
 30
0.0
 40
0.3611111111111111
 41
0.0
 71
     5
 72
     1
  1
\A1;0.4
 73
     1
 44
1.0
  0
POINT
  5
881
330
86A
100
AcDbEntity
  8
Defpoints
 62
     0
100
AcDbPoint
 10
11.32724363116835
 20
2.734469851841474
 30
0.0
  0
POINT
  5
882
330
86A
100
AcDbEntity
  8
Defpoints
 62
     0
100
AcDbPoint
 10
11.54546213510536
 20
3.15656127743405
 30
0.0
  0
POINT
  5
883
330
86A
100
AcDbEntity
  8
Defpoints
 62
     0
100
AcDbPoint
 10
10.86046859728233
 20
3.15656127743405
 30
0.0
  0
ENDBLK
  5
877
330
86A
100
AcDbEntity
  8
0
100
AcDbBlockEnd
  0
BLOCK
  5
9FB
330
9F0
100
AcDbEntity
  8
0
100
AcDbBlockBegin
  2
*D29
 70
     1
 10
0.0
 20
0.0
 30
0.0
  3
*D29
  1

  0
LINE
  5
B53
330
9F0
100
AcDbEntity
  8
0
 62
     0
370
    -2
100
AcDbLine
 10
7.2044384144998
 20
0.8785147846201571
 30
0.0
 11
7.204438414499799
 21
-10.32105677262468
 31
0.0
  0
LINE
  5
B54
330
9F0
100
AcDbEntity
  8
0
 62
     0
370
    -2
100
AcDbLine
 10
5.456688446448562
 20
-2.502088886858659
 30
0.0
 11
5.456688446448561
 21
-10.32105677262468
 31
0.0
  0
LINE
  5
B55
330
9F0
100
AcDbEntity
  8
0
 62
     0
370
    -2
100
AcDbLine
 10
7.074438414499799
 20
-10.19605677262468
 30
0.0
 11
6.973103652545333
 21
-10.19605677262468
 31
0.0
  0
LINE
  5
B56
330
9F0
100
AcDbEntity
  8
0
 62
     0
370
    -2
100
AcDbLine
 10
5.586688446448561
 20
-10.19605677262468
 30
0.0
 11
5.688023208403027
 21
-10.19605677262468
 31
0.0
  0
SOLID
  5
B57
330
9F0
100
AcDbEntity
  8
0
 62
     0
100
AcDbTrace
 10
7.074438414499799
 20
-10.17439010595801
 30
0.0
 11
7.074438414499799
 21
-10.21772343929135
 31
0.0
 12
7.204438414499799
 22
-10.19605677262468
 32
0.0
 13
7.204438414499799
 23
-10.19605677262468
 33
0.0
  0
SOLID
  5
B58
330
9F0
100
AcDbEntity
  8
0
 62
     0
100
AcDbTrace
 10
5.586688446448561
 20
-10.17439010595801
 30
0.0
 11
5.586688446448561
 21
-10.21772343929135
 31
0.0
 12
5.456688446448561
 22
-10.19605677262468
 32
0.0
 13
5.456688446448561
 23
-10.19605677262468
 33
0.0
  0
MTEXT
  5
B59
330
9F0
100
AcDbEntity
  8
0
 62
     0
100
AcDbMText
 10
6.33056343047418
 20
-10.19605677262468
 30
0.0
 40
0.3611111111111111
 41
0.0
 71
     5
 72
     1
  1
\A1;1.748
 73
     1
 44
1.0
  0
POINT
  5
B5A
330
9F0
100
AcDbEntity
  8
Defpoints
 62
     0
100
AcDbPoint
 10
7.2044384144998
 20
0.9285147846201571
 30
0.0
  0
POINT
  5
B5B
330
9F0
100
AcDbEntity
  8
Defpoints
 62
     0
100
AcDbPoint
 10
5.456688446448562
 20
-2.452088886858659
 30
0.0
  0
POINT
  5
B5C
330
9F0
100
AcDbEntity
  8
Defpoints
 62
     0
100
AcDbPoint
 10
5.456688446448561
 20
-10.19605677262468
 30
0.0
  0
ENDBLK
  5
9FC
330
9F0
100
AcDbEntity
  8
0
100
AcDbBlockEnd
  0
BLOCK
  5
BA2
330
B97
100
AcDbEntity
  8
0
100
AcDbBlockBegin
  2
*D30
 70
     1
 10
0.0
 20
0.0
 30
0.0
  3
*D30
  1

  0
LINE
  5
BA5
330
B97
100
AcDbEntity
  8
0
 62
     0
370
    -2
100
AcDbLine
 10
5.456688446448562
 20
73.82454828509937
 30
0.0
 11
5.456688446448562
 21
79.62923756890905
 31
0.0
  0
LINE
  5
BA6
330
B97
100
AcDbEntity
  8
0
 62
     0
370
    -2
100
AcDbLine
 10
52.10512126269858
 20
73.82611947586005
 30
0.0
 11
52.10512126269858
 21
79.62923756890905
 31
0.0
  0
LINE
  5
BA7
330
B97
100
AcDbEntity
  8
0
 62
     0
370
    -2
100
AcDbLine
 10
5.586688446448562
 20
79.50423756890905
 30
0.0
 11
27.9697151876803
 21
79.50423756890905
 31
0.0
  0
LINE
  5
BA8
330
B97
100
AcDbEntity
  8
0
 62
     0
370
    -2
100
AcDbLine
 10
51.97512126269857
 20
79.50423756890905
 30
0.0
 11
29.59209452146684
 21
79.50423756890905
 31
0.0
  0
SOLID
  5
BA9
330
B97
100
AcDbEntity
  8
0
 62
     0
100
AcDbTrace
 10
5.586688446448562
 20
79.52590423557571
 30
0.0
 11
5.586688446448562
 21
79.48257090224238
 31
0.0
 12
5.456688446448562
 22
79.50423756890905
 32
0.0
 13
5.456688446448562
 23
79.50423756890905
 33
0.0
  0
SOLID
  5
BAA
330
B97
100
AcDbEntity
  8
0
 62
     0
100
AcDbTrace
 10
51.97512126269857
 20
79.52590423557571
 30
0.0
 11
51.97512126269857
 21
79.48257090224238
 31
0.0
 12
52.10512126269858
 22
79.50423756890905
 32
0.0
 13
52.10512126269858
 23
79.50423756890905
 33
0.0
  0
MTEXT
  5
BAB
330
B97
100
AcDbEntity
  8
0
 62
     0
100
AcDbMText
 10
28.78090485457357
 20
79.50423756890905
 30
0.0
 40
0.3611111111111111
 41
0.0
 71
     5
 72
     1
  1
\A1;46.648
 73
     1
 44
1.0
  0
POINT
  5
BAC
330
B97
100
AcDbEntity
  8
Defpoints
 62
     0
100
AcDbPoint
 10
5.456688446448562
 20
73.77454828509937
 30
0.0
  0
POINT
  5
BAD
330
B97
100
AcDbEntity
  8
Defpoints
 62
     0
100
AcDbPoint
 10
52.10512126269858
 20
73.77611947586006
 30
0.0
  0
POINT
  5
BAE
330
B97
100
AcDbEntity
  8
Defpoints
 62
     0
100
AcDbPoint
 10
52.10512126269858
 20
79.50423756890905
 30
0.0
  0
ENDBLK
  5
BA3
330
B97
100
AcDbEntity
  8
0
100
AcDbBlockEnd
  0
ENDSEC
  0
SECTION
  2
ENTITIES
  0
LINE
  5
181
330
1F
100
AcDbEntity
  8
0
  6
Continuous
 62
     7
370
    25
100
AcDbLine
 10
50.02234187043471
 20
72.85538520596553
 30
0.0
 11
50.02234187043471
 21
72.75574776801185
 31
0.0
  0
LINE
  5
182
330
1F
100
AcDbEntity
  8
0
  6
Continuous
 62
     7
370
    25
100
AcDbLine
 10
50.69240071885992
 20
72.75574776801185
 30
0.0
 11
50.69240071885992
 21
72.85538520596553
 31
0.0
  0
LINE
  5
183
330
1F
100
AcDbEntity
  8
0
  6
Continuous
 62
     7
370
    25
100
AcDbLine
 10
50.69240071886129
 20
51.21882237165442
 30
0.0
 11
50.69240071886129
 21
51.23109264301184
 31
0.0
  0
LINE
  5
184
330
1F
100
AcDbEntity
  8
0
  6
Continuous
 62
     7
370
    25
100
AcDbLine
 10
50.02234187043608
 20
51.23109264301184
 30
0.0
 11
50.02234187043608
 21
51.2188223716544
 31
0.0
  0
CIRCLE
  5
185
330
1F
100
AcDbEntity
  8
0
  6
Continuous
 62
     7
370
    25
100
AcDbCircle
 10
18.74286175069837
 20
51.58349629901184
 30
0.0
 40
0.1031181152500086
  0
CIRCLE
  5
186
330
1F
100
AcDbEntity
  8
0
  6
Continuous
 62
     7
370
    25
100
AcDbCircle
 10
6.645343045530263
 20
72.40334411201185
 30
0.0
 40
0.1031181152500086
  0
CIRCLE
  5
187
330
1F
100
AcDbEntity
  8
0
  6
Continuous
 62
     7
370
    25
100
AcDbCircle
 10
11.47080044908686
 20
68.12150939370517
 30
0.0
 40
0.1031181152499944
  0
CIRCLE
  5
188
330
1F
100
AcDbEntity
  8
0
  6
Continuous
 62
     7
370
    25
100
AcDbCircle
 10
28.75166443228025
 20
58.41217165663923
 30
0.0
 40
0.1031181152499802
  0
CIRCLE
  5
189
330
1F
100
AcDbEntity
  8
0
  6
Continuous
 62
     7
370
    25
100
AcDbCircle
 10
6.645343045530263
 20
61.99342020551185
 30
0.0
 40
0.1031181152500229
  0
CIRCLE
  5
18A
330
1F
100
AcDbEntity
  8
0
  6
Continuous
 62
     7
370
    25
100
AcDbCircle
 10
30.82719147999901
 20
72.40334411201185
 30
0.0
 40
0.1031181152500086
  0
CIRCLE
  5
18B
330
1F
100
AcDbEntity
  8
0
  6
Continuous
 62
     7
370
    25
100
AcDbCircle
 10
46.04162894141433
 20
68.12150939370522
 30
0.0
 40
0.1031181152499944
  0
CIRCLE
  5
18C
330
1F
100
AcDbEntity
  8
0
  6
Continuous
 62
     7
370
    25
100
AcDbCircle
 10
46.04162894141433
 20
55.86533101731854
 30
0.0
 40
0.1031181152499944
  0
CIRCLE
  5
18D
330
1F
100
AcDbEntity
  8
0
  6
Continuous
 62
     7
370
    25
100
AcDbCircle
 10
50.95709934728027
 20
64.29677810955734
 30
0.0
 40
0.1031181152500086
  0
ARC
  5
18E
330
1F
100
AcDbEntity
  8
0
  6
Continuous
 62
     7
370
    25
100
AcDbCircle
 10
6.337990993280261
 20
72.69317609613684
 30
0.0
 40
0.0625716718750142
100
AcDbArc
 50
90.0
 51
180.0
  0
LINE
  5
18F
330
1F
100
AcDbEntity
  8
0
  6
Continuous
 62
     7
370
    25
100
AcDbLine
 10
51.26445139953026
 20
72.75574776801185
 30
0.0
 11
6.337990993280261
 21
72.75574776801185
 31
0.0
  0
ARC
  5
190
330
1F
100
AcDbEntity
  8
0
  6
Continuous
 62
     7
370
    25
100
AcDbCircle
 10
51.26445139953026
 20
72.69317609613684
 30
0.0
 40
0.0625716718750142
100
AcDbArc
 50
0.0
 51
90.0
  0
LINE
  5
191
330
1F
100
AcDbEntity
  8
0
  6
Continuous
 62
     7
370
    25
100
AcDbLine
 10
51.32702307140526
 20
51.29366431488683
 30
0.0
 11
51.32702307140526
 21
72.69317609613684
 31
0.0
  0
ARC
  5
192
330
1F
100
AcDbEntity
  8
0
  6
Continuous
 62
     7
370
    25
100
AcDbCircle
 10
51.26445139953026
 20
51.29366431488683
 30
0.0
 40
0.062571671875
100
AcDbArc
 50
270.0000000000008
 51
0.0
  0
LINE
  5
193
330
1F
100
AcDbEntity
  8
0
  6
Continuous
 62
     7
370
    25
100
AcDbLine
 10
51.26445139953026
 20
51.23109264301184
 30
0.0
 11
6.337990993280261
 21
51.23109264301184
 31
0.0
  0
ARC
  5
194
330
1F
100
AcDbEntity
  8
0
  6
Continuous
 62
     7
370
    25
100
AcDbCircle
 10
6.337990993280261
 20
51.29366431488683
 30
0.0
 40
0.062571671875
100
AcDbArc
 50
180.0
 51
270.0000000000008
  0
LINE
  5
195
330
1F
100
AcDbEntity
  8
0
  6
Continuous
 62
     7
370
    25
100
AcDbLine
 10
6.275419321405261
 20
51.29366431488683
 30
0.0
 11
6.275419321405261
 21
72.69317609613684
 31
0.0
  0
CIRCLE
  5
196
330
1F
100
AcDbEntity
  8
0
  6
Continuous
 62
     7
370
    25
100
AcDbCircle
 10
50.95709934728027
 20
59.69006230146634
 30
0.0
 40
0.1031181152499944
  0
CIRCLE
  5
197
330
1F
100
AcDbEntity
  8
0
  6
Continuous
 62
     7
370
    25
100
AcDbCircle
 10
42.85053334482585
 20
51.58349629901184
 30
0.0
 40
0.1031181152500086
  0
CIRCLE
  5
198
330
1F
100
AcDbEntity
  8
0
  6
Continuous
 62
     7
370
    25
100
AcDbCircle
 10
42.85053334482583
 20
72.40334411201185
 30
0.0
 40
0.1031181152500086
  0
CIRCLE
  5
199
330
1F
100
AcDbEntity
  8
0
  6
Continuous
 62
     7
370
    25
100
AcDbCircle
 10
28.75166443228025
 20
65.57466875438443
 30
0.0
 40
0.1031181152499944
  0
CIRCLE
  5
19A
330
1F
100
AcDbEntity
  8
0
  6
Continuous
 62
     7
370
    25
100
AcDbCircle
 10
30.82719147999901
 20
51.58349629901184
 30
0.0
 40
0.1031181152500086
  0
CIRCLE
  5
19B
330
1F
100
AcDbEntity
  8
0
  6
Continuous
 62
     7
370
    25
100
AcDbCircle
 10
6.645343045530263
 20
51.58349629901184
 30
0.0
 40
0.1031181152500086
  0
CIRCLE
  5
19C
330
1F
100
AcDbEntity
  8
0
  6
Continuous
 62
     7
370
    25
100
AcDbCircle
 10
11.47080044908695
 20
55.77084610679405
 30
0.0
 40
0.1031181152499944
  0
CIRCLE
  5
19D
330
1F
100
AcDbEntity
  8
0
  6
Continuous
 62
     7
370
    25
100
AcDbCircle
 10
18.7428617506984
 20
72.40334411201185
 30
0.0
 40
0.1031181152500086
  0
LINE
  5
19E
330
1F
100
AcDbEntity
  8
0
  6
Continuous
 62
     7
370
    25
100
AcDbLine
 10
50.85448180540525
 20
59.70021049304144
 30
0.0
 11
50.85448180540525
 21
59.67991410989124
 31
0.0
  0
LINE
  5
19F
330
1F
100
AcDbEntity
  8
0
  6
Continuous
 62
     7
370
    25
100
AcDbLine
 10
18.75300994227349
 20
51.68611384088683
 30
0.0
 11
18.73271355912328
 21
51.68611384088683
 31
0.0
  0
LINE
  5
1A0
330
1F
100
AcDbEntity
  8
0
  6
Continuous
 62
     7
370
    25
100
AcDbLine
 10
6.747960587405255
 20
61.98327201393677
 30
0.0
 11
6.747960587405255
 21
62.0035683970869
 31
0.0
  0
LINE
  5
1A1
330
1F
100
AcDbEntity
  8
0
  6
Continuous
 62
     7
370
    25
100
AcDbLine
 10
42.8606815364009
 20
51.68611384088683
 30
0.0
 11
42.84038515325077
 21
51.68611384088683
 31
0.0
  0
LINE
  5
1A2
330
1F
100
AcDbEntity
  8
0
  6
Continuous
 62
     7
370
    25
100
AcDbLine
 10
50.85448180540525
 20
64.30692630113242
 30
0.0
 11
50.85448180540525
 21
64.28662991798224
 31
0.0
  0
LINE
  5
1A3
330
1F
100
AcDbEntity
  8
0
  6
Continuous
 62
     7
370
    25
100
AcDbLine
 10
42.84038515325074
 20
72.30072657013685
 30
0.0
 11
42.86068153640093
 21
72.30072657013685
 31
0.0
  0
LINE
  5
1A4
330
1F
100
AcDbEntity
  8
0
  6
Continuous
 62
     7
370
    25
100
AcDbLine
 10
30.8373396715741
 20
51.68611384088683
 30
0.0
 11
30.81704328842392
 21
51.68611384088683
 31
0.0
  0
LINE
  5
1A5
330
1F
100
AcDbEntity
  8
0
  6
Continuous
 62
     7
370
    25
100
AcDbLine
 10
30.81704328842392
 20
72.30072657013685
 30
0.0
 11
30.8373396715741
 21
72.30072657013685
 31
0.0
  0
LINE
  5
1A6
330
1F
100
AcDbEntity
  8
0
  6
Continuous
 62
     7
370
    25
100
AcDbLine
 10
18.73271355912331
 20
72.30072657013685
 30
0.0
 11
18.75300994227349
 21
72.30072657013685
 31
0.0
  0
ARC
  5
1A7
330
1F
100
AcDbEntity
  8
0
  6
Continuous
 62
     7
370
    25
100
AcDbCircle
 10
51.13779277693083
 20
72.73713952683168
 30
0.0
 40
0.2364913582677197
100
AcDbArc
 50
0.0000000004103082
 51
90.0
  0
ARC
  5
1A8
330
1F
100
AcDbEntity
  8
0
  6
Continuous
 62
     7
370
    25
100
AcDbCircle
 10
51.13779277693083
 20
72.73713952683168
 30
0.0
 40
0.1182456791338638
100
AcDbArc
 50
9.054234529593376
 51
90.0
  0
LINE
  5
1A9
330
1F
100
AcDbEntity
  8
0
  6
Continuous
 62
     7
370
    25
100
AcDbLine
 10
49.51388545015918
 20
72.85538520596555
 30
0.0
 11
51.13779277693083
 21
72.85538520596555
 31
0.0
  0
LINE
  5
1AA
330
1F
100
AcDbEntity
  8
0
  6
Continuous
 62
     7
370
    25
100
AcDbLine
 10
49.51388545015918
 20
72.97363088509939
 30
0.0
 11
49.51388545015918
 21
72.85538520596555
 31
0.0
  0
LINE
  5
1AB
330
1F
100
AcDbEntity
  8
0
  6
Continuous
 62
     7
370
    25
100
AcDbLine
 10
49.35622454464738
 20
72.85538520596553
 30
0.0
 11
49.35622454464738
 21
72.97363088509939
 31
0.0
  0
LINE
  5
1AC
330
1F
100
AcDbEntity
  8
0
  6
Continuous
 62
     7
370
    25
100
AcDbLine
 10
49.51388545015918
 20
72.85538520596555
 30
0.0
 11
49.35622454464738
 21
72.85538520596553
 31
0.0
  0
LINE
  5
1AD
330
1F
100
AcDbEntity
  8
0
  6
Continuous
 62
     7
370
    25
100
AcDbLine
 10
51.37428413519856
 20
70.95557129454824
 30
0.0
 11
51.32702307140526
 21
70.95557129454824
 31
0.0
  0
ARC
  5
1AE
330
1F
100
AcDbEntity
  8
0
  6
Continuous
 62
     7
370
    25
100
AcDbCircle
 10
51.1377927769322
 20
51.33706805078827
 30
0.0
 40
0.1182456791338565
100
AcDbArc
 50
270.0000000000008
 51
296.3330505115957
  0
ARC
  5
1AF
330
1F
100
AcDbEntity
  8
0
  6
Continuous
 62
     7
370
    25
100
AcDbCircle
 10
51.1377927769322
 20
51.33706805078827
 30
0.0
 40
0.2364913582677197
100
AcDbArc
 50
270.0000000000008
 51
359.9999999995319
  0
LINE
  5
1B0
330
1F
100
AcDbEntity
  8
0
  6
Continuous
 62
     7
370
    25
100
AcDbLine
 10
49.51388545016055
 20
51.2188223716544
 30
0.0
 11
49.51388545016055
 21
51.10057669252055
 31
0.0
  0
LINE
  5
1B1
330
1F
100
AcDbEntity
  8
0
  6
Continuous
 62
     7
370
    25
100
AcDbLine
 10
49.51388545016055
 20
51.2188223716544
 30
0.0
 11
51.1377927769322
 21
51.21882237165443
 31
0.0
  0
LINE
  5
1B2
330
1F
100
AcDbEntity
  8
0
  6
Continuous
 62
     7
370
    25
100
AcDbLine
 10
51.32702307140526
 20
53.11863628307161
 30
0.0
 11
51.37428413519992
 21
53.1186362830715
 31
0.0
  0
LINE
  5
1B3
330
1F
100
AcDbEntity
  8
0
  6
Continuous
 62
     7
370
    25
100
AcDbLine
 10
49.35622454464875
 20
51.10057669252054
 30
0.0
 11
49.35622454464875
 21
51.2188223716544
 31
0.0
  0
LINE
  5
1B4
330
1F
100
AcDbEntity
  8
0
  6
Continuous
 62
     7
370
    25
100
AcDbLine
 10
49.35622454464875
 20
51.2188223716544
 30
0.0
 11
49.51388545016055
 21
51.2188223716544
 31
0.0
  0
LINE
  5
1B5
330
1F
100
AcDbEntity
  8
0
  6
Continuous
 62
     7
370
    25
100
AcDbLine
 10
52.10512126269858
 20
73.77611947586006
 30
0.0
 11
51.37428413519856
 21
73.77611947586006
 31
0.0
  0
LINE
  5
1B6
330
1F
100
AcDbEntity
  8
0
  6
Continuous
 62
     7
370
    25
100
AcDbLine
 10
52.10512126269858
 20
50.30123048185981
 30
0.0
 11
52.10512126269858
 21
73.77611947586006
 31
0.0
  0
LINE
  5
1B7
330
1F
100
AcDbEntity
  8
0
  6
Continuous
 62
     7
370
    25
100
AcDbLine
 10
52.10512126269858
 20
50.30123048185981
 30
0.0
 11
51.37428413519856
 21
50.30123048185981
 31
0.0
  0
LINE
  5
1B8
330
1F
100
AcDbEntity
  8
0
  6
Continuous
 62
     7
370
    25
100
AcDbLine
 10
51.37428413519856
 20
50.30123048185981
 30
0.0
 11
51.37428413519856
 21
73.77611947586006
 31
0.0
  0
LINE
  5
1B9
330
1F
100
AcDbEntity
  8
0
  6
Continuous
 62
     7
370
    25
100
AcDbLine
 10
6.187525573948565
 20
51.10057669109936
 30
0.0
 11
51.37428413519856
 21
51.10057669109936
 31
0.0
  0
LINE
  5
1BA
330
1F
100
AcDbEntity
  8
0
  6
Continuous
 62
     7
370
    25
100
AcDbLine
 10
51.37428413519856
 20
50.36973956359937
 30
0.0
 11
51.37428413519856
 21
51.10057669109936
 31
0.0
  0
LINE
  5
1BB
330
1F
100
AcDbEntity
  8
0
  6
Continuous
 62
     7
370
    25
100
AcDbLine
 10
6.187525573948565
 20
50.36973956359937
 30
0.0
 11
6.187525573948565
 21
51.10057669109936
 31
0.0
  0
LINE
  5
1BC
330
1F
100
AcDbEntity
  8
0
  6
Continuous
 62
     7
370
    25
100
AcDbLine
 10
6.187525573948565
 20
50.36973956359937
 30
0.0
 11
51.37428413519856
 21
50.36973956359937
 31
0.0
  0
LINE
  5
1BD
330
1F
100
AcDbEntity
  8
0
  6
Continuous
 62
     7
370
    25
100
AcDbLine
 10
6.187525573948565
 20
73.70446801259936
 30
0.0
 11
6.187525573948565
 21
72.97363088509936
 31
0.0
  0
LINE
  5
1BE
330
1F
100
AcDbEntity
  8
0
  6
Continuous
 62
     7
370
    25
100
AcDbLine
 10
51.37428413519856
 20
73.70446801259936
 30
0.0
 11
51.37428413519856
 21
72.97363088509936
 31
0.0
  0
LINE
  5
1BF
330
1F
100
AcDbEntity
  8
0
  6
Continuous
 62
     7
370
    25
100
AcDbLine
 10
51.37428413519856
 20
72.97363088509936
 30
0.0
 11
6.187525573948565
 21
72.97363088509936
 31
0.0
  0
LINE
  5
1C0
330
1F
100
AcDbEntity
  8
0
  6
Continuous
 62
     7
370
    25
100
AcDbLine
 10
51.37428413519856
 20
73.70446801259936
 30
0.0
 11
6.187525573948565
 21
73.70446801259936
 31
0.0
  0
LINE
  5
1C1
330
1F
100
AcDbEntity
  8
0
  6
Continuous
 62
     7
370
    25
100
AcDbLine
 10
5.456688446448562
 20
50.29965929109938
 30
0.0
 11
6.187525573948565
 21
50.29965929109938
 31
0.0
  0
LINE
  5
1C2
330
1F
100
AcDbEntity
  8
0
  6
Continuous
 62
     7
370
    25
100
AcDbLine
 10
6.187525573948565
 20
73.77454828509937
 30
0.0
 11
6.187525573948565
 21
50.29965929109938
 31
0.0
  0
LINE
  5
1C3
330
1F
100
AcDbEntity
  8
0
  6
Continuous
 62
     7
370
    25
100
AcDbLine
 10
5.456688446448562
 20
73.77454828509937
 30
0.0
 11
6.187525573948565
 21
73.77454828509937
 31
0.0
  0
LINE
  5
1C4
330
1F
100
AcDbEntity
  8
0
  6
Continuous
 62
     7
370
    25
100
AcDbLine
 10
5.456688446448562
 20
73.77454828509937
 30
0.0
 11
5.456688446448562
 21
50.29965929109938
 31
0.0
  0
LINE
  5
1C5
330
1F
100
AcDbEntity
  8
0
  6
Continuous
 62
     7
370
    25
100
AcDbLine
 10
51.37428413519856
 20
64.82729978034928
 30
0.0
 11
51.32702307140526
 21
64.87456084414256
 31
0.0
  0
LINE
  5
1C6
330
1F
100
AcDbEntity
  8
0
  6
Continuous
 62
     7
370
    25
100
AcDbLine
 10
43.44583614753609
 20
72.75574776801185
 30
0.0
 11
43.22795303044856
 21
72.97363088509936
 31
0.0
  0
LINE
  5
1C7
330
1F
100
AcDbEntity
  8
0
  6
Continuous
 62
     7
370
    25
100
AcDbLine
 10
43.22795303044856
 20
51.10057669109936
 30
0.0
 11
43.35846898236103
 21
51.23109264301184
 31
0.0
  0
LINE
  5
1C8
330
1F
100
AcDbEntity
  8
0
  6
Continuous
 62
     7
370
    25
100
AcDbLine
 10
51.32702307140526
 20
59.19964673205615
 30
0.0
 11
51.37428413519856
 21
59.24690779584945
 31
0.0
  0
LINE
  5
1C9
330
1F
100
AcDbEntity
  8
0
  6
Continuous
 62
     8
370
    25
100
AcDbLine
 10
51.32702307140526
 20
71.11323220006003
 30
0.0
 11
51.37428413519856
 21
71.11323220006003
 31
0.0
  0
LINE
  5
1CA
330
1F
100
AcDbEntity
  8
0
  6
Continuous
 62
     8
370
    25
100
AcDbLine
 10
51.37428413519989
 20
52.9609753775599
 30
0.0
 11
51.32702307140526
 21
52.96097537755992
 31
0.0
  0
LINE
  5
1D8
330
1F
100
AcDbEntity
  8
0
  6
Continuous
 62
     7
370
    25
100
AcDbLine
 10
51.26445139953026
 20
134.2140988750419
 30
0.0
 11
51.32702307140526
 21
134.2140988750419
 31
0.0
  0
LINE
  5
1D9
330
1F
100
AcDbEntity
  8
0
  6
Continuous
 62
     7
370
    25
100
AcDbLine
 10
51.32702307140526
 20
134.2140988750419
 30
0.0
 11
51.32702307140526
 21
134.1427976256643
 31
0.0
  0
LINE
  5
1DA
330
1F
100
AcDbEntity
  8
0
  6
Continuous
 62
     7
370
    25
100
AcDbLine
 10
51.26445139953026
 20
134.2140988750419
 30
0.0
 11
6.337990993280261
 21
134.2140988750419
 31
0.0
  0
LINE
  5
1DB
330
1F
100
AcDbEntity
  8
0
  6
Continuous
 62
     7
370
    25
100
AcDbLine
 10
6.275419321405261
 20
134.1427976256643
 30
0.0
 11
6.275419321405261
 21
134.2140988750419
 31
0.0
  0
LINE
  5
1DC
330
1F
100
AcDbEntity
  8
0
  6
Continuous
 62
     7
370
    25
100
AcDbLine
 10
6.275419321405261
 20
134.2140988750419
 30
0.0
 11
6.337990993280261
 21
134.2140988750419
 31
0.0
  0
ARC
  5
1DD
330
1F
100
AcDbEntity
  8
0
  6
Continuous
 62
     7
370
    25
100
AcDbCircle
 10
7.204438414500241
 20
130.766109082114
 30
0.0
 40
0.1877150156250079
100
AcDbArc
 50
270.0000000000008
 51
359.4024910019513
  0
ARC
  5
1DE
330
1F
100
AcDbEntity
  8
0
  6
Continuous
 62
     7
370
    25
100
AcDbCircle
 10
7.204438414500241
 20
130.766109082114
 30
0.0
 40
0.187715015625
100
AcDbArc
 50
180.5975088309759
 51
270.0000000000008
  0
ARC
  5
1DF
330
1F
100
AcDbEntity
  8
0
  6
Continuous
 62
     7
370
    25
100
AcDbCircle
 10
50.35737129465327
 20
106.2465665044308
 30
0.0
 40
0.187715015625
100
AcDbArc
 50
179.9999999999957
 51
1.44225509405334
  0
CIRCLE
  5
1E0
330
1F
100
AcDbEntity
  8
0
  6
Continuous
 62
     7
370
    25
100
AcDbCircle
 10
50.35737129464601
 20
106.2465207065576
 30
0.0
 40
0.187715015625
  0
CIRCLE
  5
1E1
330
1F
100
AcDbEntity
  8
0
  6
Continuous
 62
     7
370
    25
100
AcDbCircle
 10
50.35737129464874
 20
130.7663305361041
 30
0.0
 40
0.187715015625
  0
CIRCLE
  5
1E2
330
1F
100
AcDbEntity
  8
0
  6
Continuous
 62
     7
370
    25
100
AcDbCircle
 10
7.204438414499729
 20
130.7621939541854
 30
0.0
 40
0.187715015625
  0
CIRCLE
  5
1E3
330
1F
100
AcDbEntity
  8
0
  6
Continuous
 62
     7
370
    25
100
AcDbCircle
 10
7.204438414499729
 20
106.2447938331322
 30
0.0
 40
0.187715015625
  0
ARC
  5
1E4
330
1F
100
AcDbEntity
  8
0
  6
Continuous
 62
     7
370
    25
100
AcDbCircle
 10
7.204438414500241
 20
106.2420429209557
 30
0.0
 40
0.1877150156250075
100
AcDbArc
 50
0.4198257954341981
 51
179.5801744082613
  0
LINE
  5
1E5
330
1F
100
AcDbEntity
  8
0
  6
Continuous
 62
     7
370
    25
100
AcDbLine
 10
52.10512126269858
 20
134.1427976256641
 30
0.0
 11
51.37428413519856
 21
134.1427976256641
 31
0.0
  0
LINE
  5
1E6
330
1F
100
AcDbEntity
  8
0
  6
Continuous
 62
     7
370
    25
100
AcDbLine
 10
52.10512126269858
 20
103.7009283984141
 30
0.0
 11
52.10512126269858
 21
134.1427976256641
 31
0.0
  0
LINE
  5
1E7
330
1F
100
AcDbEntity
  8
0
  6
Continuous
 62
     7
370
    25
100
AcDbLine
 10
51.37428413519856
 20
103.7009283984141
 30
0.0
 11
51.37428413519856
 21
134.1427976256641
 31
0.0
  0
LINE
  5
1E8
330
1F
100
AcDbEntity
  8
0
  6
Continuous
 62
     7
370
    25
100
AcDbLine
 10
52.10512126269858
 20
103.7009283984141
 30
0.0
 11
51.37428413519856
 21
103.7009283984141
 31
0.0
  0
LINE
  5
1E9
330
1F
100
AcDbEntity
  8
0
  6
Continuous
 62
     7
370
    25
100
AcDbLine
 10
51.37428413519856
 20
103.7509857359135
 30
0.0
 11
6.187525573948565
 21
103.7509857359135
 31
0.0
  0
LINE
  5
1EA
330
1F
100
AcDbEntity
  8
0
  6
Continuous
 62
     7
370
    25
100
AcDbLine
 10
6.187525573948565
 20
134.1427976256642
 30
0.0
 11
51.37428413519856
 21
134.1427976256642
 31
0.0
  0
CIRCLE
  5
1EB
330
1F
100
AcDbEntity
  8
0
  6
Continuous
 62
     7
370
    25
100
AcDbCircle
 10
7.20619239207355
 20
106.2388354096637
 30
0.0
 40
0.4770464263750158
  0
CIRCLE
  5
1EC
330
1F
100
AcDbEntity
  8
0
  6
Continuous
 62
     7
370
    25
100
AcDbCircle
 10
7.20619239207355
 20
130.7639273444142
 30
0.0
 40
0.4770464263749873
  0
CIRCLE
  5
1ED
330
1F
100
AcDbEntity
  8
0
  6
Continuous
 62
     7
370
    25
100
AcDbCircle
 10
50.35561731707357
 20
130.7639273444142
 30
0.0
 40
0.4770464263749873
  0
CIRCLE
  5
1EE
330
1F
100
AcDbEntity
  8
0
  6
Continuous
 62
     7
370
    25
100
AcDbCircle
 10
50.35561731707357
 20
106.2388354096637
 30
0.0
 40
0.4770464263750158
  0
CIRCLE
  5
1EF
330
1F
100
AcDbEntity
  8
0
  6
Continuous
 62
     7
370
    25
100
AcDbCircle
 10
50.35561731707357
 20
106.2388354096637
 30
0.0
 40
0.2192511382500225
  0
CIRCLE
  5
1F0
330
1F
100
AcDbEntity
  8
0
  6
Continuous
 62
     7
370
    25
100
AcDbCircle
 10
50.35561731707357
 20
130.7639273444142
 30
0.0
 40
0.2192511382499941
  0
CIRCLE
  5
1F1
330
1F
100
AcDbEntity
  8
0
  6
Continuous
 62
     7
370
    25
100
AcDbCircle
 10
7.20619239207355
 20
106.2388354096637
 30
0.0
 40
0.2192511382500225
  0
CIRCLE
  5
1F2
330
1F
100
AcDbEntity
  8
0
  6
Continuous
 62
     7
370
    25
100
AcDbCircle
 10
7.20619239207355
 20
130.7639273444142
 30
0.0
 40
0.2192511382499941
  0
LINE
  5
1F3
330
1F
100
AcDbEntity
  8
0
  6
Continuous
 62
     7
370
    25
100
AcDbLine
 10
5.456688446448562
 20
103.7009283984142
 30
0.0
 11
6.187525573948565
 21
103.7009283984142
 31
0.0
  0
LINE
  5
1F4
330
1F
100
AcDbEntity
  8
0
  6
Continuous
 62
     7
370
    25
100
AcDbLine
 10
5.456688446448562
 20
134.1427976256642
 30
0.0
 11
5.456688446448562
 21
103.7009283984142
 31
0.0
  0
LINE
  5
1F5
330
1F
100
AcDbEntity
  8
0
  6
Continuous
 62
     7
370
    25
100
AcDbLine
 10
5.456688446448562
 20
134.1427976256642
 30
0.0
 11
6.187525573948565
 21
134.1427976256642
 31
0.0
  0
LINE
  5
1F6
330
1F
100
AcDbEntity
  8
0
  6
Continuous
 62
     7
370
    25
100
AcDbLine
 10
6.187525573948565
 20
134.1427976256642
 30
0.0
 11
6.187525573948565
 21
103.7009283984142
 31
0.0
  0
LINE
  5
1F7
330
1F
100
AcDbEntity
  8
0
  6
Continuous
 62
     8
370
    25
100
AcDbLine
 10
51.26445139953026
 20
134.1427976256643
 30
0.0
 11
51.26445139953026
 21
134.2140988750419
 31
0.0
  0
LINE
  5
1F8
330
1F
100
AcDbEntity
  8
0
  6
Continuous
 62
     8
370
    25
100
AcDbLine
 10
6.337990993280261
 20
134.2140988750419
 30
0.0
 11
6.337990993280261
 21
134.1427976256643
 31
0.0
  0
LINE
  5
1F9
330
1F
100
AcDbEntity
  8
0
  6
Continuous
 62
     7
370
    25
100
AcDbLine
 10
96.96972457418567
 20
51.29366431488683
 30
0.0
 11
96.96972457418567
 21
72.69317609613684
 31
0.0
  0
LINE
  5
1FA
330
1F
100
AcDbEntity
  8
0
  6
Continuous
 62
     7
370
    25
100
AcDbLine
 10
96.96972457418567
 20
51.29366431488683
 30
0.0
 11
96.96972457418567
 21
51.23109264301184
 31
0.0
  0
LINE
  5
1FB
330
1F
100
AcDbEntity
  8
0
  6
Continuous
 62
     7
370
    25
100
AcDbLine
 10
96.96972457418567
 20
51.23109264301184
 30
0.0
 11
96.89842332480795
 21
51.23109264301184
 31
0.0
  0
LINE
  5
1FC
330
1F
100
AcDbEntity
  8
0
  6
Continuous
 62
     7
370
    25
100
AcDbLine
 10
96.89842332480795
 20
72.75574776801185
 30
0.0
 11
96.96972457418567
 21
72.75574776801185
 31
0.0
  0
LINE
  5
1FD
330
1F
100
AcDbEntity
  8
0
  6
Continuous
 62
     7
370
    25
100
AcDbLine
 10
96.96972457418567
 20
72.75574776801185
 30
0.0
 11
96.96972457418567
 21
72.69317609613684
 31
0.0
  0
CIRCLE
  5
1FE
330
1F
100
AcDbEntity
  8
0
  6
Continuous
 62
     7
370
    25
100
AcDbCircle
 10
93.52173478125775
 20
71.9567180445498
 30
0.0
 40
0.187715015625
  0
CIRCLE
  5
1FF
330
1F
100
AcDbEntity
  8
0
  6
Continuous
 62
     7
370
    25
100
AcDbCircle
 10
93.51781965332909
 20
52.1174895316509
 30
0.0
 40
0.187715015625
  0
CIRCLE
  5
200
330
1F
100
AcDbEntity
  8
0
  6
Continuous
 62
     7
370
    25
100
AcDbCircle
 10
69.00041953227582
 20
52.1174895316772
 30
0.0
 40
0.187715015625
  0
CIRCLE
  5
201
330
1F
100
AcDbEntity
  8
0
  6
Continuous
 62
     7
370
    25
100
AcDbCircle
 10
68.99766862009943
 20
71.95671804455838
 30
0.0
 40
0.187715015625
  0
LINE
  5
202
330
1F
100
AcDbEntity
  8
0
  6
Continuous
 62
     7
370
    25
100
AcDbLine
 10
66.45655409755781
 20
73.77611947585982
 30
0.0
 11
66.45655409755781
 21
73.77454828509953
 31
0.0
  0
LINE
  5
203
330
1F
100
AcDbEntity
  8
0
  6
Continuous
 62
     7
370
    25
100
AcDbLine
 10
96.89842332480775
 20
73.77611947586006
 30
0.0
 11
66.45655409755781
 21
73.77611947585982
 31
0.0
  0
LINE
  5
204
330
1F
100
AcDbEntity
  8
0
  6
Continuous
 62
     7
370
    25
100
AcDbLine
 10
96.89842332480775
 20
73.77454828509953
 30
0.0
 11
96.89842332480775
 21
73.77611947586006
 31
0.0
  0
LINE
  5
205
330
1F
100
AcDbEntity
  8
0
  6
Continuous
 62
     7
370
    25
100
AcDbLine
 10
96.89842332480795
 20
73.77454828509937
 30
0.0
 11
96.89842332480795
 21
50.29965929109938
 31
0.0
  0
LINE
  5
206
330
1F
100
AcDbEntity
  8
0
  6
Continuous
 62
     7
370
    25
100
AcDbLine
 10
66.45655409755796
 20
73.77454828509937
 30
0.0
 11
96.89842332480795
 21
73.77454828509937
 31
0.0
  0
CIRCLE
  5
207
330
1F
100
AcDbEntity
  8
0
  6
Continuous
 62
     7
370
    25
100
AcDbCircle
 10
93.52005361693294
 20
52.11573949559937
 30
0.0
 40
0.4770464263750015
  0
CIRCLE
  5
208
330
1F
100
AcDbEntity
  8
0
  6
Continuous
 62
     7
370
    25
100
AcDbCircle
 10
68.99896626918295
 20
52.11573949559937
 30
0.0
 40
0.4770464263750015
  0
CIRCLE
  5
209
330
1F
100
AcDbEntity
  8
0
  6
Continuous
 62
     7
370
    25
100
AcDbCircle
 10
68.99896626918295
 20
71.95846808059937
 30
0.0
 40
0.4770464263750015
  0
CIRCLE
  5
20A
330
1F
100
AcDbEntity
  8
0
  6
Continuous
 62
     7
370
    25
100
AcDbCircle
 10
93.52005361693294
 20
71.95846808059937
 30
0.0
 40
0.4770464263750015
  0
LINE
  5
20B
330
1F
100
AcDbEntity
  8
0
  6
Continuous
 62
     7
370
    25
100
AcDbLine
 10
96.89842332480795
 20
50.29965929109938
 30
0.0
 11
66.45655409755796
 21
50.29965929109938
 31
0.0
  0
LINE
  5
20C
330
1F
100
AcDbEntity
  8
0
  6
Continuous
 62
     7
370
    25
100
AcDbLine
 10
66.45655409755796
 20
50.29965929109938
 30
0.0
 11
66.45655409755796
 21
73.77454828509937
 31
0.0
  0
CIRCLE
  5
20D
330
1F
100
AcDbEntity
  8
0
  6
Continuous
 62
     7
370
    25
100
AcDbCircle
 10
68.99896626918295
 20
52.11573949559937
 30
0.0
 40
0.2192511382499941
  0
CIRCLE
  5
20E
330
1F
100
AcDbEntity
  8
0
  6
Continuous
 62
     7
370
    25
100
AcDbCircle
 10
68.99896626918295
 20
71.95846808059937
 30
0.0
 40
0.2192511382500083
  0
CIRCLE
  5
20F
330
1F
100
AcDbEntity
  8
0
  6
Continuous
 62
     7
370
    25
100
AcDbCircle
 10
93.52005361693294
 20
52.11573949559937
 30
0.0
 40
0.2192511382499941
  0
CIRCLE
  5
210
330
1F
100
AcDbEntity
  8
0
  6
Continuous
 62
     7
370
    25
100
AcDbCircle
 10
93.52005361693294
 20
71.95846808059937
 30
0.0
 40
0.2192511382500083
  0
LINE
  5
211
330
1F
100
AcDbEntity
  8
0
  6
Continuous
 62
     8
370
    25
100
AcDbLine
 10
96.96972457418567
 20
72.69317609613684
 30
0.0
 11
96.89842332480795
 21
72.69317609613684
 31
0.0
  0
LINE
  5
212
330
1F
100
AcDbEntity
  8
0
  6
Continuous
 62
     8
370
    25
100
AcDbLine
 10
96.89842332480795
 20
51.29366431488683
 30
0.0
 11
96.96972457418567
 21
51.29366431488683
 31
0.0
  0
LINE
  5
235
330
1F
100
AcDbEntity
  8
0
  6
Continuous
 62
     7
370
    25
100
AcDbLine
 10
51.26445139953026
 20
-2.523390136236367
 30
0.0
 11
6.337990993280261
 21
-2.523390136236367
 31
0.0
  0
LINE
  5
236
330
1F
100
AcDbEntity
  8
0
  6
Continuous
 62
     7
370
    25
100
AcDbLine
 10
6.275419321405261
 20
-2.523390136236367
 30
0.0
 11
6.275419321405261
 21
-2.452088886859451
 31
0.0
  0
LINE
  5
237
330
1F
100
AcDbEntity
  8
0
  6
Continuous
 62
     7
370
    25
100
AcDbLine
 10
6.337990993280261
 20
-2.523390136236367
 30
0.0
 11
6.275419321405261
 21
-2.523390136236367
 31
0.0
  0
LINE
  5
238
330
1F
100
AcDbEntity
  8
0
  6
Continuous
 62
     7
370
    25
100
AcDbLine
 10
51.32702307140526
 20
-2.45208888685944
 30
0.0
 11
51.32702307140526
 21
-2.523390136236367
 31
0.0
  0
LINE
  5
239
330
1F
100
AcDbEntity
  8
0
  6
Continuous
 62
     7
370
    25
100
AcDbLine
 10
51.32702307140526
 20
-2.523390136236367
 30
0.0
 11
51.26445139953026
 21
-2.523390136236367
 31
0.0
  0
CIRCLE
  5
23A
330
1F
100
AcDbEntity
  8
0
  6
Continuous
 62
     7
370
    25
100
AcDbCircle
 10
7.204438414500184
 20
0.9245996566915547
 30
0.0
 40
0.187715015625
  0
CIRCLE
  5
23B
330
1F
100
AcDbEntity
  8
0
  6
Continuous
 62
     7
370
    25
100
AcDbCircle
 10
50.35737129465353
 20
25.44414223437455
 30
0.0
 40
0.187715015625
  0
ARC
  5
23C
330
1F
100
AcDbEntity
  8
0
  6
Continuous
 62
     7
370
    25
100
AcDbCircle
 10
50.35737129464596
 20
25.44418803224799
 30
0.0
 40
0.1877150156250047
100
AcDbArc
 50
169.5350496390606
 51
200.1840050001991
  0
CIRCLE
  5
23D
330
1F
100
AcDbEntity
  8
0
  6
Continuous
 62
     7
370
    25
100
AcDbCircle
 10
50.35737129464738
 20
0.922107039686772
 30
0.0
 40
0.187715015625
  0
ARC
  5
23E
330
1F
100
AcDbEntity
  8
0
  6
Continuous
 62
     7
370
    25
100
AcDbCircle
 10
7.2044384144998
 20
0.9285147846201571
 30
0.0
 40
0.1877150156250064
100
AcDbArc
 50
270.0000000000008
 51
359.4024805725281
  0
ARC
  5
23F
330
1F
100
AcDbEntity
  8
0
  6
Continuous
 62
     7
370
    25
100
AcDbCircle
 10
7.2044384144998
 20
0.9285147846201571
 30
0.0
 40
0.187715015625
100
AcDbArc
 50
180.5975196696831
 51
270.0000000000008
  0
ARC
  5
240
330
1F
100
AcDbEntity
  8
0
  6
Continuous
 62
     7
370
    25
100
AcDbCircle
 10
7.2044384144998
 20
25.44591490567342
 30
0.0
 40
0.1877150156250138
100
AcDbArc
 50
0.4198347369260795
 51
179.5801650992393
  0
CIRCLE
  5
241
330
1F
100
AcDbEntity
  8
0
  6
Continuous
 62
     7
370
    25
100
AcDbCircle
 10
7.204438414500184
 20
25.44866581784989
 30
0.0
 40
0.187715015625
  0
LINE
  5
242
330
1F
100
AcDbEntity
  8
0
  6
Continuous
 62
     7
370
    25
100
AcDbLine
 10
52.10512126269858
 20
27.98978034039149
 30
0.0
 11
51.37428413519856
 21
27.98978034039149
 31
0.0
  0
LINE
  5
243
330
1F
100
AcDbEntity
  8
0
  6
Continuous
 62
     7
370
    25
100
AcDbLine
 10
52.10512126269858
 20
-2.452088886858505
 30
0.0
 11
52.10512126269858
 21
27.98978034039149
 31
0.0
  0
LINE
  5
244
330
1F
100
AcDbEntity
  8
0
  6
Continuous
 62
     7
370
    25
100
AcDbLine
 10
52.10512126269858
 20
-2.452088886858505
 30
0.0
 11
51.37428413519856
 21
-2.452088886858505
 31
0.0
  0
LINE
  5
245
330
1F
100
AcDbEntity
  8
0
  6
Continuous
 62
     7
370
    25
100
AcDbLine
 10
51.37428413519856
 20
-2.452088886858505
 30
0.0
 11
51.37428413519856
 21
27.98978034039149
 31
0.0
  0
LINE
  5
246
330
1F
100
AcDbEntity
  8
0
  6
Continuous
 62
     7
370
    25
100
AcDbLine
 10
51.37428413519856
 20
-2.45208888685944
 30
0.0
 11
6.187525573948565
 21
-2.45208888685944
 31
0.0
  0
LINE
  5
247
330
1F
100
AcDbEntity
  8
0
  6
Continuous
 62
     7
370
    25
100
AcDbLine
 10
6.187525573948537
 20
27.93972300289134
 30
0.0
 11
51.37428413519856
 21
27.93972300289135
 31
0.0
  0
CIRCLE
  5
248
330
1F
100
AcDbEntity
  8
0
  6
Continuous
 62
     7
370
    25
100
AcDbCircle
 10
7.20619239207355
 20
0.9217756606408165
 30
0.0
 40
0.4770464263750087
  0
CIRCLE
  5
249
330
1F
100
AcDbEntity
  8
0
  6
Continuous
 62
     7
370
    25
100
AcDbCircle
 10
7.20619239207355
 20
25.45187332914134
 30
0.0
 40
0.4770464263750087
  0
CIRCLE
  5
24A
330
1F
100
AcDbEntity
  8
0
  6
Continuous
 62
     7
370
    25
100
AcDbCircle
 10
50.35561731707357
 20
25.45187332914135
 30
0.0
 40
0.4770464263750087
  0
CIRCLE
  5
24B
330
1F
100
AcDbEntity
  8
0
  6
Continuous
 62
     7
370
    25
100
AcDbCircle
 10
50.35561731707357
 20
0.9217756606410794
 30
0.0
 40
0.4770464263750158
  0
LINE
  5
24C
330
1F
100
AcDbEntity
  8
0
  6
Continuous
 62
     7
370
    25
100
AcDbLine
 10
12.20692040832351
 20
11.32369039314093
 30
0.0
 11
12.20692040832352
 21
13.95170061189118
 31
0.0
  0
ARC
  5
24D
330
1F
100
AcDbEntity
  8
0
  6
Continuous
 62
     7
370
    25
100
AcDbCircle
 10
11.95663372082354
 20
13.95170061189118
 30
0.0
 40
0.2502866874999929
100
AcDbArc
 50
359.9999999999992
 51
90.0
  0
LINE
  5
24E
330
1F
100
AcDbEntity
  8
0
  6
Continuous
 62
     7
370
    25
100
AcDbLine
 10
11.95663372082354
 20
14.20198729939117
 30
0.0
 11
9.969357422073541
 21
14.20198729939119
 31
0.0
  0
ARC
  5
24F
330
1F
100
AcDbEntity
  8
0
  6
Continuous
 62
     7
370
    25
100
AcDbCircle
 10
9.969357422073526
 20
13.95170061189118
 30
0.0
 40
0.2502866875000071
100
AcDbArc
 50
89.99999999999674
 51
180.0
  0
LINE
  5
250
330
1F
100
AcDbEntity
  8
0
  6
Continuous
 62
     7
370
    25
100
AcDbLine
 10
9.719070734573527
 20
13.95170061189118
 30
0.0
 11
9.719070734573527
 21
11.32369039314093
 31
0.0
  0
ARC
  5
251
330
1F
100
AcDbEntity
  8
0
  6
Continuous
 62
     7
370
    25
100
AcDbCircle
 10
9.969357422073526
 20
11.32369039314093
 30
0.0
 40
0.2502866875
100
AcDbArc
 50
180.0
 51
270.0000000000041
  0
LINE
  5
252
330
1F
100
AcDbEntity
  8
0
  6
Continuous
 62
     7
370
    25
100
AcDbLine
 10
9.969357422073541
 20
11.07340370564092
 30
0.0
 11
11.95663372082351
 21
11.07340370564092
 31
0.0
  0
ARC
  5
253
330
1F
100
AcDbEntity
  8
0
  6
Continuous
 62
     7
370
    25
100
AcDbCircle
 10
11.95663372082354
 20
11.32369039314093
 30
0.0
 40
0.2502866875
100
AcDbArc
 50
269.9999999999943
 51
0.0
  0
CIRCLE
  5
254
330
1F
100
AcDbEntity
  8
0
  6
Continuous
 62
     7
370
    25
100
AcDbCircle
 10
9.581413056448537
 20
14.31461630876619
 30
0.0
 40
0.0625716718750071
  0
CIRCLE
  5
255
330
1F
100
AcDbEntity
  8
0
  6
Continuous
 62
     7
370
    25
100
AcDbCircle
 10
9.581413056448537
 20
10.96077469626593
 30
0.0
 40
0.062571671875
  0
CIRCLE
  5
256
330
1F
100
AcDbEntity
  8
0
  6
Continuous
 62
     7
370
    25
100
AcDbCircle
 10
12.34457808644853
 20
14.31461630876619
 30
0.0
 40
0.062571671875
  0
CIRCLE
  5
257
330
1F
100
AcDbEntity
  8
0
  6
Continuous
 62
     7
370
    25
100
AcDbCircle
 10
12.34457808644853
 20
10.96077469626593
 30
0.0
 40
0.0625716718749929
  0
CIRCLE
  5
258
330
1F
100
AcDbEntity
  8
0
  6
Continuous
 62
     7
370
    25
100
AcDbCircle
 10
7.20619239207355
 20
25.45187332914134
 30
0.0
 40
0.2192511382500083
  0
CIRCLE
  5
259
330
1F
100
AcDbEntity
  8
0
  6
Continuous
 62
     7
370
    25
100
AcDbCircle
 10
7.20619239207355
 20
0.9217756606408165
 30
0.0
 40
0.2192511382500083
  0
CIRCLE
  5
25A
330
1F
100
AcDbEntity
  8
0
  6
Continuous
 62
     7
370
    25
100
AcDbCircle
 10
50.35561731707357
 20
0.9217756606410794
 30
0.0
 40
0.2192511382500047
  0
CIRCLE
  5
25B
330
1F
100
AcDbEntity
  8
0
  6
Continuous
 62
     7
370
    25
100
AcDbCircle
 10
50.35561731707357
 20
25.45187332914135
 30
0.0
 40
0.2192511382500012
  0
LINE
  5
25C
330
1F
100
AcDbEntity
  8
0
  6
Continuous
 62
     7
370
    25
100
AcDbLine
 10
5.456688446448562
 20
-2.452088886858661
 30
0.0
 11
6.187525573948565
 21
-2.452088886858661
 31
0.0
  0
LINE
  5
25D
330
1F
100
AcDbEntity
  8
0
  6
Continuous
 62
     7
370
    25
100
AcDbLine
 10
5.456688446448562
 20
27.98978034039133
 30
0.0
 11
5.456688446448562
 21
-2.452088886858661
 31
0.0
  0
LINE
  5
25E
330
1F
100
AcDbEntity
  8
0
  6
Continuous
 62
     7
370
    25
100
AcDbLine
 10
6.187525573948565
 20
27.98978034039133
 30
0.0
 11
6.187525573948565
 21
-2.452088886858661
 31
0.0
  0
LINE
  5
25F
330
1F
100
AcDbEntity
  8
0
  6
Continuous
 62
     7
370
    25
100
AcDbLine
 10
5.456688446448562
 20
27.98978034039133
 30
0.0
 11
6.187525573948565
 21
27.98978034039133
 31
0.0
  0
LINE
  5
260
330
1F
100
AcDbEntity
  8
0
  6
Continuous
 62
     8
370
    25
100
AcDbLine
 10
6.337990993280261
 20
-2.452088886859444
 30
0.0
 11
6.337990993280261
 21
-2.523390136236367
 31
0.0
  0
LINE
  5
261
330
1F
100
AcDbEntity
  8
0
  6
Continuous
 62
     8
370
    25
100
AcDbLine
 10
51.26445139953026
 20
-2.523390136236367
 30
0.0
 11
51.26445139953026
 21
-2.45208888685944
 31
0.0
  0
LINE
  5
3C5
330
1F
100
AcDbEntity
  8
0
  6
Continuous
 62
     7
370
    25
100
AcDbLine
 10
-66.16645274454814
 20
24.00989312722038
 30
0.0
 11
-65.43561561704812
 21
24.00989312722038
 31
0.0
  0
LINE
  5
3C6
330
1F
100
AcDbEntity
  8
0
  6
Continuous
 62
     7
370
    25
100
AcDbLine
 10
-65.43561561704812
 20
24.00989312722038
 30
0.0
 11
-65.43561561704812
 21
0.5350041332203844
 31
0.0
  0
LINE
  5
3C7
330
1F
100
AcDbEntity
  8
0
  6
Continuous
 62
     7
370
    25
100
AcDbLine
 10
-66.16645274454814
 20
0.5350041332203844
 30
0.0
 11
-65.43561561704812
 21
0.5350041332203844
 31
0.0
  0
LINE
  5
3C8
330
1F
100
AcDbEntity
  8
0
  6
Continuous
 62
     7
370
    25
100
AcDbLine
 10
-66.16645274454814
 20
24.00989312722038
 30
0.0
 11
-66.16645274454814
 21
0.5350041332203844
 31
0.0
  0
LINE
  5
3C9
330
1F
100
AcDbEntity
  8
0
  6
Continuous
 62
     7
370
    25
100
AcDbLine
 10
-65.43561561704812
 20
1.193188650709923
 30
0.0
 11
-20.24885705579814
 21
1.193188650709923
 31
0.0
  0
LINE
  5
3CA
330
1F
100
AcDbEntity
  8
0
  6
Continuous
 62
     7
370
    25
100
AcDbLine
 10
-65.43561561704812
 20
0.6035132149599254
 30
0.0
 11
-20.24885705579814
 21
0.6035132149599254
 31
0.0
  0
LINE
  5
3CB
330
1F
100
AcDbEntity
  8
0
  6
Continuous
 62
     7
370
    25
100
AcDbLine
 10
-20.24885705579813
 20
23.93824166395992
 30
0.0
 11
-65.43561561704812
 21
23.93824166395979
 31
0.0
  0
LINE
  5
3CC
330
1F
100
AcDbEntity
  8
0
  6
Continuous
 62
     7
370
    25
100
AcDbLine
 10
-20.24885705579813
 20
23.34856622820992
 30
0.0
 11
-65.43561561704812
 21
23.34856622820978
 31
0.0
  0
LINE
  5
3CD
330
1F
100
AcDbEntity
  8
0
  6
Continuous
 62
     7
370
    25
100
AcDbLine
 10
-19.51801992829813
 20
24.00832193645993
 30
0.0
 11
-20.24885705579814
 21
24.00832193645993
 31
0.0
  0
LINE
  5
3CE
330
1F
100
AcDbEntity
  8
0
  6
Continuous
 62
     7
370
    25
100
AcDbLine
 10
-19.51801992829813
 20
0.5334329424599323
 30
0.0
 11
-19.51801992829813
 21
24.00832193645993
 31
0.0
  0
LINE
  5
3CF
330
1F
100
AcDbEntity
  8
0
  6
Continuous
 62
     7
370
    25
100
AcDbLine
 10
-19.51801992829813
 20
0.5334329424599323
 30
0.0
 11
-20.24885705579814
 21
0.5334329424599323
 31
0.0
  0
LINE
  5
3D0
330
1F
100
AcDbEntity
  8
0
  6
Continuous
 62
     7
370
    25
100
AcDbLine
 10
-20.24885705579814
 20
0.5334329424599323
 30
0.0
 11
-20.24885705579814
 21
24.00832193645993
 31
0.0
  0
ENDSEC
  0
SECTION
  2
OBJECTS
  0
DICTIONARY
  5
C
330
0
100
AcDbDictionary
281
     1
  3
ACAD_COLOR
350
7AF
  3
ACAD_DETAILVIEWSTYLE
350
7AC
  3
ACAD_GROUP
350
D
  3
ACAD_LAYOUT
350
1A
  3
ACAD_MATERIAL
350
43
  3
ACAD_MLEADERSTYLE
350
6B
  3
ACAD_MLINESTYLE
350
17
  3
ACAD_PLOTSETTINGS
350
19
  3
ACAD_PLOTSTYLENAME
350
E
  3
ACAD_SCALELIST
350
47
  3
ACAD_SECTIONVIEWSTYLE
350
7AD
  3
ACAD_TABLESTYLE
350
69
  3
ACDB_RECOMPOSE_DATA
350
7A9
  3
AcDbVariableDictionary
350
7A3
  0
DICTIONARY
  5
7AF
102
{ACAD_REACTORS
330
C
102
}
330
C
100
AcDbDictionary
281
     1
  0
DICTIONARY
  5
7AC
102
{ACAD_REACTORS
330
C
102
}
330
C
100
AcDbDictionary
281
     1
  0
DICTIONARY
  5
D
102
{ACAD_REACTORS
330
C
102
}
330
C
100
AcDbDictionary
281
     1
  0
DICTIONARY
  5
1A
102
{ACAD_REACTORS
330
C
102
}
330
C
100
AcDbDictionary
281
     1
  3
Layout1
350
1E
  3
Layout2
350
26
  3
Model
350
22
  0
DICTIONARY
  5
43
102
{ACAD_REACTORS
330
C
102
}
330
C
100
AcDbDictionary
281
     1
  3
ByBlock
350
45
  3
ByLayer
350
44
  3
Global
350
46
  0
DICTIONARY
  5
6B
102
{ACAD_REACTORS
330
C
102
}
330
C
100
AcDbDictionary
281
     1
  3
Standard
350
6C
  0
DICTIONARY
  5
17
102
{ACAD_REACTORS
330
C
102
}
330
C
100
AcDbDictionary
281
     1
  3
Standard
350
18
  0
DICTIONARY
  5
19
102
{ACAD_REACTORS
330
C
102
}
330
C
100
AcDbDictionary
281
     1
  0
ACDBDICTIONARYWDFLT
  5
E
102
{ACAD_REACTORS
330
C
102
}
330
C
100
AcDbDictionary
281
     1
  3
Normal
350
F
100
AcDbDictionaryWithDefault
340
F
  0
DICTIONARY
  5
47
102
{ACAD_REACTORS
330
C
102
}
330
C
100
AcDbDictionary
281
     1
  3
A0
350
48
  3
A1
350
49
  3
A2
350
4A
  3
A3
350
4B
  3
A4
350
4C
  3
A5
350
4D
  3
A6
350
4E
  3
A7
350
4F
  3
A8
350
50
  3
A9
350
51
  3
B0
350
52
  3
B1
350
53
  3
B2
350
54
  3
B3
350
55
  3
B4
350
56
  3
B5
350
57
  3
B6
350
58
  3
B7
350
59
  3
B8
350
5A
  3
B9
350
5B
  3
C0
350
5C
  3
C1
350
5D
  3
C2
350
5E
  3
C3
350
5F
  3
C4
350
60
  3
C5
350
61
  3
C6
350
62
  3
C7
350
63
  3
C8
350
64
  3
C9
350
65
  3
D0
350
66
  3
D1
350
67
  3
D2
350
68
  0
DICTIONARY
  5
7AD
102
{ACAD_REACTORS
330
C
102
}
330
C
100
AcDbDictionary
281
     1
  0
DICTIONARY
  5
69
102
{ACAD_REACTORS
330
C
102
}
330
C
100
AcDbDictionary
281
     1
  3
Standard
350
6A
  0
XRECORD
  5
7A9
102
{ACAD_REACTORS
330
C
102
}
330
C
100
AcDbXrecord
280
     1
 90
        1
330
6A
  0
DICTIONARY
  5
7A3
102
{ACAD_REACTORS
330
C
102
}
330
C
100
AcDbDictionary
281
     1
  3
CANNOSCALE
350
7A4
  3
CMLEADERSTYLE
350
7AB
  3
CTABLESTYLE
350
7AA
  0
LAYOUT
  5
1E
102
{ACAD_REACTORS
330
1A
102
}
330
1A
100
AcDbPlotSettings
  1

  2
none_device
  4

  6

 40
0.0
 41
0.0
 42
0.0
 43
0.0
 44
0.0
 45
0.0
 46
0.0
 47
0.0
 48
0.0
 49
0.0
140
0.0
141
0.0
142
1.0
143
1.0
 70
   688
 72
     0
 73
     0
 74
     5
  7

 75
    16
147
1.0
 76
     0
 77
     2
 78
   300
148
0.0
149
0.0
100
AcDbLayout
  1
Layout1
 70
     1
 71
     1
 10
0.0
 20
0.0
 11
12.0
 21
9.0
 12
0.0
 22
0.0
 32
0.0
 14
1.000000000000000E+20
 24
1.000000000000000E+20
 34
1.000000000000000E+20
 15
-1.000000000000000E+20
 25
-1.000000000000000E+20
 35
-1.000000000000000E+20
146
0.0
 13
0.0
 23
0.0
 33
0.0
 16
1.0
 26
0.0
 36
0.0
 17
0.0
 27
1.0
 37
0.0
 76
     0
330
1B
  0
LAYOUT
  5
26
102
{ACAD_REACTORS
330
1A
102
}
330
1A
100
AcDbPlotSettings
  1

  2
none_device
  4

  6

 40
0.0
 41
0.0
 42
0.0
 43
0.0
 44
0.0
 45
0.0
 46
0.0
 47
0.0
 48
0.0
 49
0.0
140
0.0
141
0.0
142
1.0
143
1.0
 70
   688
 72
     0
 73
     0
 74
     5
  7

 75
    16
147
1.0
 76
     0
 77
     2
 78
   300
148
0.0
149
0.0
100
AcDbLayout
  1
Layout2
 70
     1
 71
     2
 10
0.0
 20
0.0
 11
0.0
 21
0.0
 12
0.0
 22
0.0
 32
0.0
 14
0.0
 24
0.0
 34
0.0
 15
0.0
 25
0.0
 35
0.0
146
0.0
 13
0.0
 23
0.0
 33
0.0
 16
1.0
 26
0.0
 36
0.0
 17
0.0
 27
1.0
 37
0.0
 76
     0
330
23
  0
LAYOUT
  5
22
102
{ACAD_REACTORS
330
1A
102
}
330
1A
100
AcDbPlotSettings
  1

  2
none_device
  4
Letter_(8.50_x_11.00_Inches)
  6

 40
6.349999999999999
 41
6.349999999999999
 42
6.350005079999999
 43
6.350005079999999
 44
215.9
 45
279.4
 46
0.0
 47
0.0
 48
0.0
 49
0.0
140
0.0
141
0.0
142
1.0
143
1.0
 70
  1712
 72
     0
 73
     0
 74
     0
  7

 75
     0
147
1.0
 76
     0
 77
     2
 78
   300
148
0.0
149
0.0
100
AcDbLayout
  1
Model
 70
     1
 71
     0
 10
0.0
 20
0.0
 11
34.0
 21
22.0
 12
0.0
 22
0.0
 32
0.0
 14
0.0
 24
0.0
 34
0.0
 15
34.0
 25
22.0
 35
0.0
146
0.0
 13
0.0
 23
0.0
 33
0.0
 16
1.0
 26
0.0
 36
0.0
 17
0.0
 27
1.0
 37
0.0
 76
     0
330
1F
  0
MATERIAL
  5
45
102
{ACAD_REACTORS
330
43
102
}
330
43
100
AcDbMaterial
  1
ByBlock
  0
MATERIAL
  5
44
102
{ACAD_REACTORS
330
43
102
}
330
43
100
AcDbMaterial
  1
ByLayer
  0
MATERIAL
  5
46
102
{ACAD_REACTORS
330
43
102
}
330
43
100
AcDbMaterial
  1
Global
  0
ACAD_PROXY_OBJECT
  5
6C
102
{ACAD_REACTORS
330
6B
102
}
330
6B
100
AcDbProxyObject
 90
      499
 91
      505
 95
       25
 70
     0
 93
      736
310
40901902A40600000030400FEFFFFFF815AF46E07A156E7F02B5E8DC0F42B5CFD085374616E6461726402B5E8DC0F42B1CFE405064068000000C10002B5E8DC0F42B1CFC02B5E8DC0F42B1CFE000000304015D90000000000000C03F00
340
14
340
0
340
11
340
0
 94
        0
1001
ACAD_MLEADERVER
1070
     2
  0
MLINESTYLE
  5
18
102
{ACAD_REACTORS
330
17
102
}
330
17
100
AcDbMlineStyle
  2
STANDARD
 70
     0
  3

 62
   256
 51
90.0
 52
90.0
 71
     2
 49
0.5
 62
   256
  6
BYLAYER
 49
-0.5
 62
   256
  6
BYLAYER
  0
ACDBPLACEHOLDER
  5
F
102
{ACAD_REACTORS
330
E
102
}
330
E
  0
ACAD_PROXY_OBJECT
  5
48
102
{ACAD_REACTORS
330
47
102
}
330
47
100
AcDbProxyObject
 90
      499
 91
      503
 95
       25
 70
     0
 93
       41
310
903313A31580
 94
        0
  0
ACAD_PROXY_OBJECT
  5
49
102
{ACAD_REACTORS
330
47
102
}
330
47
100
AcDbProxyObject
 90
      499
 91
      503
 95
       25
 70
     0
 93
      105
310
903313A324000000000000004000
 94
        0
  0
ACAD_PROXY_OBJECT
  5
4A
102
{ACAD_REACTORS
330
47
102
}
330
47
100
AcDbProxyObject
 90
      499
 91
      503
 95
       25
 70
     0
 93
      105
310
903313A344000000000000104000
 94
        0
  0
ACAD_PROXY_OBJECT
  5
4B
102
{ACAD_REACTORS
330
47
102
}
330
47
100
AcDbProxyObject
 90
      499
 91
      503
 95
       25
 70
     0
 93
      105
310
903313A354000000000000144000
 94
        0
  0
ACAD_PROXY_OBJECT
  5
4C
102
{ACAD_REACTORS
330
47
102
}
330
47
100
AcDbProxyObject
 90
      499
 91
      503
 95
       25
 70
     0
 93
      105
310
903313A384000000000000204000
 94
        0
  0
ACAD_PROXY_OBJECT
  5
4D
102
{ACAD_REACTORS
330
47
102
}
330
47
100
AcDbProxyObject
 90
      499
 91
      503
 95
       25
 70
     0
 93
      113
310
904313A31304000000000000244000
 94
        0
  0
ACAD_PROXY_OBJECT
  5
4E
102
{ACAD_REACTORS
330
47
102
}
330
47
100
AcDbProxyObject
 90
      499
 91
      503
 95
       25
 70
     0
 93
      113
310
904313A31364000000000000304000
 94
        0
  0
ACAD_PROXY_OBJECT
  5
4F
102
{ACAD_REACTORS
330
47
102
}
330
47
100
AcDbProxyObject
 90
      499
 91
      503
 95
       25
 70
     0
 93
      113
310
904313A32304000000000000344000
 94
        0
  0
ACAD_PROXY_OBJECT
  5
50
102
{ACAD_REACTORS
330
47
102
}
330
47
100
AcDbProxyObject
 90
      499
 91
      503
 95
       25
 70
     0
 93
      113
310
904313A333040000000000003E4000
 94
        0
  0
ACAD_PROXY_OBJECT
  5
51
102
{ACAD_REACTORS
330
47
102
}
330
47
100
AcDbProxyObject
 90
      499
 91
      503
 95
       25
 70
     0
 93
      113
310
904313A34304000000000000444000
 94
        0
  0
ACAD_PROXY_OBJECT
  5
52
102
{ACAD_REACTORS
330
47
102
}
330
47
100
AcDbProxyObject
 90
      499
 91
      503
 95
       25
 70
     0
 93
      113
310
904313A35304000000000000494000
 94
        0
  0
ACAD_PROXY_OBJECT
  5
53
102
{ACAD_REACTORS
330
47
102
}
330
47
100
AcDbProxyObject
 90
      499
 91
      503
 95
       25
 70
     0
 93
      121
310
905313A3130304000000000000594000
 94
        0
  0
ACAD_PROXY_OBJECT
  5
54
102
{ACAD_REACTORS
330
47
102
}
330
47
100
AcDbProxyObject
 90
      499
 91
      503
 95
       25
 70
     0
 93
      105
310
903323A310000000000000010140
 94
        0
  0
ACAD_PROXY_OBJECT
  5
55
102
{ACAD_REACTORS
330
47
102
}
330
47
100
AcDbProxyObject
 90
      499
 91
      503
 95
       25
 70
     0
 93
      105
310
903343A310000000000000410159
 94
        0
  0
ACAD_PROXY_OBJECT
  5
56
102
{ACAD_REACTORS
330
47
102
}
330
47
100
AcDbProxyObject
 90
      499
 91
      503
 95
       25
 70
     0
 93
      105
310
903383A310000000000000810140
 94
        0
  0
ACAD_PROXY_OBJECT
  5
57
102
{ACAD_REACTORS
330
47
102
}
330
47
100
AcDbProxyObject
 90
      499
 91
      503
 95
       25
 70
     0
 93
      113
310
90431303A310000000000000910140
 94
        0
  0
ACAD_PROXY_OBJECT
  5
58
102
{ACAD_REACTORS
330
47
102
}
330
47
100
AcDbProxyObject
 90
      499
 91
      503
 95
       25
 70
     0
 93
      121
310
9053130303A310000000000001650100
 94
        0
  0
ACAD_PROXY_OBJECT
  5
59
102
{ACAD_REACTORS
330
47
102
}
330
47
100
AcDbProxyObject
 90
      499
 91
      503
 95
       25
 70
     0
 93
      257
310
90E312F31323822203D2031272D3022000000000000200FC000000000000284000
 94
        0
  0
ACAD_PROXY_OBJECT
  5
5A
102
{ACAD_REACTORS
330
47
102
}
330
47
100
AcDbProxyObject
 90
      499
 91
      503
 95
       25
 70
     0
 93
      249
310
90D312F363422203D2031272D3022000000000000240FC000000000000284000
 94
        0
  0
ACAD_PROXY_OBJECT
  5
5B
102
{ACAD_REACTORS
330
47
102
}
330
47
100
AcDbProxyObject
 90
      499
 91
      503
 95
       25
 70
     0
 93
      249
310
90D312F333222203D2031272D3022000000000000280FC000000000000284040
 94
        0
  0
ACAD_PROXY_OBJECT
  5
5C
102
{ACAD_REACTORS
330
47
102
}
330
47
100
AcDbProxyObject
 90
      499
 91
      503
 95
       25
 70
     0
 93
      249
310
90D312F313622203D2031272D30220000000000002C0FC000000000000284000
 94
        0
  0
ACAD_PROXY_OBJECT
  5
5D
102
{ACAD_REACTORS
330
47
102
}
330
47
100
AcDbProxyObject
 90
      499
 91
      503
 95
       25
 70
     0
 93
      249
310
90D332F333222203D2031272D30220000000000002E0FC000000000000284040
 94
        0
  0
ACAD_PROXY_OBJECT
  5
5E
102
{ACAD_REACTORS
330
47
102
}
330
47
100
AcDbProxyObject
 90
      499
 91
      503
 95
       25
 70
     0
 93
      241
310
90C312F3822203D2031272D3022000000000000300FC000000000000284040
 94
        0
  0
ACAD_PROXY_OBJECT
  5
5F
102
{ACAD_REACTORS
330
47
102
}
330
47
100
AcDbProxyObject
 90
      499
 91
      503
 95
       25
 70
     0
 93
      249
310
90D332F313622203D2031272D3022000000000000320FC000000000000284040
 94
        0
  0
ACAD_PROXY_OBJECT
  5
60
102
{ACAD_REACTORS
330
47
102
}
330
47
100
AcDbProxyObject
 90
      499
 91
      503
 95
       25
 70
     0
 93
      241
310
90C312F3422203D2031272D3022000000000000340FC000000000000284040
 94
        0
  0
ACAD_PROXY_OBJECT
  5
61
102
{ACAD_REACTORS
330
47
102
}
330
47
100
AcDbProxyObject
 90
      499
 91
      503
 95
       25
 70
     0
 93
      241
310
90C332F3822203D2031272D3022000000000000360FC000000000000284040
 94
        0
  0
ACAD_PROXY_OBJECT
  5
62
102
{ACAD_REACTORS
330
47
102
}
330
47
100
AcDbProxyObject
 90
      499
 91
      503
 95
       25
 70
     0
 93
      241
310
90C312F3222203D2031272D3022000000000000380FC000000000000284040
 94
        0
  0
ACAD_PROXY_OBJECT
  5
63
102
{ACAD_REACTORS
330
47
102
}
330
47
100
AcDbProxyObject
 90
      499
 91
      503
 95
       25
 70
     0
 93
      241
310
90C332F3422203D2031272D30220000000000003A0FC000000000000284040
 94
        0
  0
ACAD_PROXY_OBJECT
  5
64
102
{ACAD_REACTORS
330
47
102
}
330
47
100
AcDbProxyObject
 90
      499
 91
      503
 95
       25
 70
     0
 93
      161
310
90A3122203D2031272D30224000000000000284000
 94
        0
  0
ACAD_PROXY_OBJECT
  5
65
102
{ACAD_REACTORS
330
47
102
}
330
47
100
AcDbProxyObject
 90
      499
 91
      503
 95
       25
 70
     0
 93
      257
310
90E312D312F3222203D2031272D30220000000000003E0FC000000000000284000
 94
        0
  0
ACAD_PROXY_OBJECT
  5
66
102
{ACAD_REACTORS
330
47
102
}
330
47
100
AcDbProxyObject
 90
      499
 91
      503
 95
       25
 70
     0
 93
      225
310
90A3322203D2031272D302200000000000002100000000000000284028
 94
        0
  0
ACAD_PROXY_OBJECT
  5
67
102
{ACAD_REACTORS
330
47
102
}
330
47
100
AcDbProxyObject
 90
      499
 91
      503
 95
       25
 70
     0
 93
      225
310
90A3622203D2031272D302200000000000006100000000000000284000
 94
        0
  0
ACAD_PROXY_OBJECT
  5
68
102
{ACAD_REACTORS
330
47
102
}
330
47
100
AcDbProxyObject
 90
      499
 91
      503
 95
       25
 70
     0
 93
      249
310
90D31272D3022203D2031272D30220000000000000A100000000000000284040
 94
        0
  0
TABLESTYLE
  5
6A
102
{ACAD_XDICTIONARY
360
7A5
102
}
102
{ACAD_REACTORS
330
69
102
}
330
69
100
AcDbTableStyle
  3
Standard
 70
     0
 71
     0
 40
0.06
 41
0.06
280
     0
281
     0
  7
STANDARD
140
0.18
170
     2
 62
     0
 63
   257
283
     0
274
    -2
284
     1
 64
     0
275
    -2
285
     1
 65
     0
276
    -2
286
     1
 66
     0
277
    -2
287
     1
 67
     0
278
    -2
288
     1
 68
     0
279
    -2
289
     1
 69
     0
  7
STANDARD
140
0.25
170
     5
 62
     0
 63
   257
283
     0
274
    -2
284
     1
 64
     0
275
    -2
285
     1
 65
     0
276
    -2
286
     1
 66
     0
277
    -2
287
     1
 67
     0
278
    -2
288
     1
 68
     0
279
    -2
289
     1
 69
     0
  7
STANDARD
140
0.18
170
     5
 62
     0
 63
   257
283
     0
274
    -2
284
     1
 64
     0
275
    -2
285
     1
 65
     0
276
    -2
286
     1
 66
     0
277
    -2
287
     1
 67
     0
278
    -2
288
     1
 68
     0
279
    -2
289
     1
 69
     0
  0
DICTIONARYVAR
  5
7A4
102
{ACAD_REACTORS
330
7A3
102
}
330
7A3
100
DictionaryVariables
280
     0
  1
1:1
  0
DICTIONARYVAR
  5
7AB
102
{ACAD_REACTORS
330
7A3
102
}
330
7A3
100
DictionaryVariables
280
     0
  1
Standard
  0
DICTIONARYVAR
  5
7AA
102
{ACAD_REACTORS
330
7A3
102
}
330
7A3
100
DictionaryVariables
280
     0
  1
STANDARD
  0
DICTIONARY
  5
7A5
330
6A
100
AcDbDictionary
280
     1
281
     1
  3
ACAD_ROUNDTRIP_2008_TABLESTYLE_CELLSTYLEMAP
360
7A7
  3
ACAD_XREC_ROUNDTRIP
360
7A6
  0
ACAD_PROXY_OBJECT
  5
7A7
102
{ACAD_REACTORS
330
7A5
102
}
330
7A5
100
AcDbProxyObject
 90
      499
 91
      508
 95
       25
 70
     0
 93
     5208
310
40D05406A0000003200101A412A5028000000C10002B5E8DC0F42B1CFD012E07A17AD46E2B8FCB81E85EB51B8AE3F2E07A17AD46E2B8FCB81E85EB51B8AE3F2E07A17AD46E2B8FCB81E85EB51B8AE3F419019018000000C1003FBFFFFFE02B5E8DC0F42A9CFD029018000000C1003FBFFFFFE02B5E8DC0F42A9CFD04901800
310
0000C1003FBFFFFFE02B5E8DC0F42A9CFD089018000000C1003FBFFFFFE02B5E8DC0F42A9CFD109018000000C1003FBFFFFFE02B5E8DC0F42A9CFD209018000000C1003FBFFFFFE02B5E8DC0F42A9CFD03409055F44415441415018008000008000000C800406904A941600000030400000000000000D03F404B81E85EB51B
310
8AE3F2E07A17AD46E2B8FCB81E85EB51B8AE3F2E07A17AD46E2B8FCB81E85EB51B8AE3F2E07A17AD46E2B8FD0640640600000030400FEFFFFFF80AD7A3703D0AA73F40A40600000030400FEFFFFFF80AD7A3703D0AA73F41240600000030400FEFFFFFF80AD7A3703D0AA73F42240600000030400FEFFFFFF80AD7A3703D0A
310
A73F44240600000030400FEFFFFFF80AD7A3703D0AA73F48240600000030400FEFFFFFF80AD7A3703D0AA73F405014197D512551311505406A0000003200101A412A5058000000C10002B5E8DC0F42B1CFD012E07A17AD46E2B8FCB81E85EB51B8AE3F2E07A17AD46E2B8FCB81E85EB51B8AE3F2E07A17AD46E2B8FCB81E85
310
EB51B8AE3F419019018000000C1003FBFFFFFE02B5E8DC0F42A9CFD029018000000C1003FBFFFFFE02B5E8DC0F42A9CFD049018000000C1003FBFFFFFE02B5E8DC0F42A9CFD089018000000C1003FBFFFFFE02B5E8DC0F42A9CFD109018000000C1003FBFFFFFE02B5E8DC0F42A9CFD209018000000C1003FBFFFFFE02B5E8
310
DC0F42A9CFD02405075F48454144455200
340
11
340
14
340
14
340
14
340
14
340
14
340
14
340
11
340
14
340
14
340
14
340
14
340
14
340
14
340
11
340
14
340
14
340
14
340
14
340
14
340
14
 94
        0
  0
XRECORD
  5
7A6
102
{ACAD_REACTORS
330
7A5
102
}
330
7A5
100
AcDbXrecord
280
     1
102
ACAD_ROUNDTRIP_PRE2007_TABLESTYLE
 90
        4
 91
        0
  1

 92
        4
 93
        0
  2

 94
        4
 95
        0
  3

  0
ENDSEC
  0
EOF
