  0
SECTION
  2
HEADER
  9
$ACADVER
  1
AC1024
  9
$ACADMAINTVER
 70
     6
  9
$DWGCODEPAGE
  3
ANSI_1252
  9
$INSBASE
 10
0.0
 20
0.0
 30
0.0
  9
$EXTMIN
 10
0.0
 20
0.0
 30
0.0
  9
$EXTMAX
 10
78.7401574803
 20
78.7401574803
 30
0.0
  9
$LIMMIN
 10
0.0
 20
0.0
  9
$LIMMAX
 10
78.7401574803
 20
78.7401574803
  9
$ORTHOMODE
 70
     0
  9
$REGENMODE
 70
     1
  9
$FILLMODE
 70
     1
  9
$QTEXTMODE
 70
     0
  9
$MIRRTEXT
 70
     1
  9
$LTSCALE
 40
1.0
  9
$ATTMODE
 70
     1
  9
$TEXTSIZE
 40
0.1377952756
  9
$TRACEWID
 40
0.05
  9
$TEXTSTYLE
  7
STANDARD
  9
$CLAYER
  8
0
  9
$CELTYPE
  6
ByLayer
  9
$CECOLOR
 62
   256
  9
$CELTSCALE
 40
1.0
  9
$DISPSILH
 70
     0
  9
$DIMSCALE
 40
1.0
  9
$DIMASZ
 40
0.2362204724
  9
$DIMEXO
 40
0.0393700787
  9
$DIMDLI
 40
0.38
  9
$DIMRND
 40
0.0
  9
$DIMDLE
 40
0.0
  9
$DIMEXE
 40
0.0393700787
  9
$DIMTP
 40
0.0
  9
$DIMTM
 40
0.0
  9
$DIMTXT
 40
0.1377952756
  9
$DIMCEN
 40
0.09
  9
$DIMTSZ
 40
0.0
  9
$DIMTOL
 70
     0
  9
$DIMLIM
 70
     0
  9
$DIMTIH
 70
     1
  9
$DIMTOH
 70
     1
  9
$DIMSE1
 70
     0
  9
$DIMSE2
 70
     0
  9
$DIMTAD
 70
     1
  9
$DIMZIN
 70
     0
  9
$DIMBLK
  1

  9
$DIMASO
 70
     1
  9
$DIMSHO
 70
     1
  9
$DIMPOST
  1

  9
$DIMAPOST
  1

  9
$DIMALT
 70
     0
  9
$DIMALTD
 70
     2
  9
$DIMALTF
 40
25.4
  9
$DIMLFAC
 40
1.0
  9
$DIMTOFL
 70
     0
  9
$DIMTVP
 40
0.0
  9
$DIMTIX
 70
     0
  9
$DIMSOXD
 70
     0
  9
$DIMSAH
 70
     0
  9
$DIMBLK1
  1

  9
$DIMBLK2
  1

  9
$DIMSTYLE
  2
Standard
  9
$DIMCLRD
 70
     0
  9
$DIMCLRE
 70
     0
  9
$DIMCLRT
 70
     0
  9
$DIMTFAC
 40
1.0
  9
$DIMGAP
 40
0.06
  9
$DIMJUST
 70
     0
  9
$DIMSD1
 70
     0
  9
$DIMSD2
 70
     0
  9
$DIMTOLJ
 70
     1
  9
$DIMTZIN
 70
     0
  9
$DIMALTZ
 70
     0
  9
$DIMALTTZ
 70
     0
  9
$DIMUPT
 70
     0
  9
$DIMDEC
 70
     3
  9
$DIMTDEC
 70
     3
  9
$DIMALTU
 70
     2
  9
$DIMALTTD
 70
     2
  9
$DIMTXSTY
  7
STANDARD
  9
$DIMAUNIT
 70
     0
  9
$DIMADEC
 70
     2
  9
$DIMALTRND
 40
0.0
  9
$DIMAZIN
 70
     0
  9
$DIMDSEP
 70
    46
  9
$DIMATFIT
 70
     3
  9
$DIMFRAC
 70
     0
  9
$DIMLDRBLK
  1

  9
$DIMLUNIT
 70
     2
  9
$DIMLWD
 70
    -2
  9
$DIMLWE
 70
    -2
  9
$DIMTMOVE
 70
     0
  9
$DIMFXL
 40
1.0
  9
$DIMFXLON
 70
     0
  9
$DIMJOGANG
 40
0.7853981634
  9
$DIMTFILL
 70
     0
  9
$DIMTFILLCLR
 70
     0
  9
$DIMARCSYM
 70
     0
  9
$DIMLTYPE
  6

  9
$DIMLTEX1
  6

  9
$DIMLTEX2
  6

  9
$DIMTXTDIRECTION
 70
     0
  9
$LUNITS
 70
     2
  9
$LUPREC
 70
     2
  9
$SKETCHINC
 40
0.1
  9
$FILLETRAD
 40
0.5
  9
$AUNITS
 70
     0
  9
$AUPREC
 70
     2
  9
$MENU
  1
.
  9
$ELEVATION
 40
0.0
  9
$PELEVATION
 40
0.0
  9
$THICKNESS
 40
0.0
  9
$LIMCHECK
 70
     0
  9
$CHAMFERA
 40
0.0
  9
$CHAMFERB
 40
0.0
  9
$CHAMFERC
 40
0.0
  9
$CHAMFERD
 40
0.0
  9
$SKPOLY
 70
     0
  9
$TDCREATE
 40
2457232.463930197
  9
$TDUCREATE
 40
2457232.67226353
  9
$TDUPDATE
 40
2457232.463930498
  9
$TDUUPDATE
 40
2457232.672263831
  9
$TDINDWG
 40
0.0000000116
  9
$TDUSRTIMER
 40
0.0000000116
  9
$USRTIMER
 70
     1
  9
$ANGBASE
 50
0.0
  9
$ANGDIR
 70
     0
  9
$PDMODE
 70
     0
  9
$PDSIZE
 40
-1.0
  9
$PLINEWID
 40
0.0
  9
$SPLFRAME
 70
     0
  9
$SPLINETYPE
 70
     6
  9
$SPLINESEGS
 70
     8
  9
$HANDSEED
  5
14A
  9
$SURFTAB1
 70
     6
  9
$SURFTAB2
 70
     6
  9
$SURFTYPE
 70
     6
  9
$SURFU
 70
     6
  9
$SURFV
 70
     6
  9
$UCSBASE
  2

  9
$UCSNAME
  2

  9
$UCSORG
 10
0.0
 20
0.0
 30
0.0
  9
$UCSXDIR
 10
1.0
 20
0.0
 30
0.0
  9
$UCSYDIR
 10
0.0
 20
1.0
 30
0.0
  9
$UCSORTHOREF
  2

  9
$UCSORTHOVIEW
 70
     0
  9
$UCSORGTOP
 10
0.0
 20
0.0
 30
0.0
  9
$UCSORGBOTTOM
 10
0.0
 20
0.0
 30
0.0
  9
$UCSORGLEFT
 10
0.0
 20
0.0
 30
0.0
  9
$UCSORGRIGHT
 10
0.0
 20
0.0
 30
0.0
  9
$UCSORGFRONT
 10
0.0
 20
0.0
 30
0.0
  9
$UCSORGBACK
 10
0.0
 20
0.0
 30
0.0
  9
$PUCSBASE
  2

  9
$PUCSNAME
  2

  9
$PUCSORG
 10
0.0
 20
0.0
 30
0.0
  9
$PUCSXDIR
 10
1.0
 20
0.0
 30
0.0
  9
$PUCSYDIR
 10
0.0
 20
1.0
 30
0.0
  9
$PUCSORTHOREF
  2

  9
$PUCSORTHOVIEW
 70
     0
  9
$PUCSORGTOP
 10
0.0
 20
0.0
 30
0.0
  9
$PUCSORGBOTTOM
 10
0.0
 20
0.0
 30
0.0
  9
$PUCSORGLEFT
 10
0.0
 20
0.0
 30
0.0
  9
$PUCSORGRIGHT
 10
0.0
 20
0.0
 30
0.0
  9
$PUCSORGFRONT
 10
0.0
 20
0.0
 30
0.0
  9
$PUCSORGBACK
 10
0.0
 20
0.0
 30
0.0
  9
$USERI1
 70
     0
  9
$USERI2
 70
     0
  9
$USERI3
 70
     0
  9
$USERI4
 70
     0
  9
$USERI5
 70
     0
  9
$USERR1
 40
0.0
  9
$USERR2
 40
0.0
  9
$USERR3
 40
0.0
  9
$USERR4
 40
0.0
  9
$USERR5
 40
0.0
  9
$WORLDVIEW
 70
     1
  9
$SHADEDGE
 70
     3
  9
$SHADEDIF
 70
    70
  9
$TILEMODE
 70
     1
  9
$MAXACTVP
 70
    64
  9
$PINSBASE
 10
0.0
 20
0.0
 30
0.0
  9
$PLIMCHECK
 70
     0
  9
$PEXTMIN
 10
1.0000000000E+20
 20
1.0000000000E+20
 30
1.0000000000E+20
  9
$PEXTMAX
 10
-1.0000000000E+20
 20
-1.0000000000E+20
 30
-1.0000000000E+20
  9
$PLIMMIN
 10
0.0
 20
0.0
  9
$PLIMMAX
 10
12.0
 20
9.0
  9
$UNITMODE
 70
     0
  9
$VISRETAIN
 70
     1
  9
$PLINEGEN
 70
     0
  9
$PSLTSCALE
 70
     1
  9
$TREEDEPTH
 70
  3020
  9
$CMLSTYLE
  2
Standard
  9
$CMLJUST
 70
     0
  9
$CMLSCALE
 40
1.0
  9
$PROXYGRAPHICS
 70
     1
  9
$MEASUREMENT
 70
     0
  9
$CELWEIGHT
370
    -1
  9
$ENDCAPS
280
     0
  9
$JOINSTYLE
280
     0
  9
$LWDISPLAY
290
     1
  9
$INSUNITS
 70
     1
  9
$HYPERLINKBASE
  1

  9
$STYLESHEET
  1

  9
$XEDIT
290
     1
  9
$CEPSNTYPE
380
     0
  9
$PSTYLEMODE
290
     1
  9
$FINGERPRINTGUID
  2
{8C98CCDC-EFB8-42CA-A0D3-63B0366A3ED5}
  9
$VERSIONGUID
  2
{FAEB1C32-E019-11D5-929B-00C0DF256EC4}
  9
$EXTNAMES
290
     1
  9
$PSVPSCALE
 40
0.0
  9
$OLESTARTUP
290
     0
  9
$SORTENTS
280
   127
  9
$INDEXCTL
280
     0
  9
$HIDETEXT
280
     1
  9
$XCLIPFRAME
280
     2
  9
$HALOGAP
280
     0
  9
$OBSCOLOR
 70
   257
  9
$OBSLTYPE
280
     0
  9
$INTERSECTIONDISPLAY
280
     0
  9
$INTERSECTIONCOLOR
 70
   257
  9
$DIMASSOC
280
     2
  9
$PROJECTNAME
  1

  9
$CAMERADISPLAY
290
     0
  9
$LENSLENGTH
 40
50.0
  9
$CAMERAHEIGHT
 40
0.0
  9
$STEPSPERSEC
 40
2.0
  9
$STEPSIZE
 40
6.0
  9
$3DDWFPREC
 40
2.0
  9
$PSOLWIDTH
 40
0.25
  9
$PSOLHEIGHT
 40
4.0
  9
$LOFTANG1
 40
1.5707963268
  9
$LOFTANG2
 40
1.5707963268
  9
$LOFTMAG1
 40
0.0
  9
$LOFTMAG2
 40
0.0
  9
$LOFTPARAM
 70
     7
  9
$LOFTNORMALS
280
     1
  9
$LATITUDE
 40
37.795
  9
$LONGITUDE
 40
-122.394
  9
$NORTHDIRECTION
 40
0.0
  9
$TIMEZONE
 70
 -8000
  9
$LIGHTGLYPHDISPLAY
280
     1
  9
$TILEMODELIGHTSYNCH
280
     1
  9
$CMATERIAL
347
44
  9
$SOLIDHIST
280
     1
  9
$SHOWHIST
280
     1
  9
$DWFFRAME
280
     2
  9
$DGNFRAME
280
     2
  9
$REALWORLDSCALE
290
     1
  9
$INTERFERECOLOR
 62
   256
  9
$CSHADOW
280
     0
  9
$SHADOWPLANELOCATION
 40
0.0
  0
ENDSEC
  0
SECTION
  2
CLASSES
  0
CLASS
  1
ACDBDICTIONARYWDFLT
  2
AcDbDictionaryWithDefault
  3
ObjectDBX Classes
 90
        0
 91
        4
280
     0
281
     0
  0
CLASS
  1
VISUALSTYLE
  2
AcDbVisualStyle
  3
ObjectDBX Classes
 90
     4095
 91
        4
280
     0
281
     0
  0
CLASS
  1
MATERIAL
  2
AcDbMaterial
  3
ObjectDBX Classes
 90
     1153
 91
        4
280
     0
281
     0
  0
CLASS
  1
SCALE
  2
AcDbScale
  3
ObjectDBX Classes
 90
     1153
 91
        4
280
     0
281
     0
  0
CLASS
  1
SUN
  2
AcDbSun
  3
SCENEOE
 90
     1153
 91
        4
280
     0
281
     0
  0
CLASS
  1
DICTIONARYVAR
  2
AcDbDictionaryVar
  3
ObjectDBX Classes
 90
        0
 91
        4
280
     0
281
     0
  0
ENDSEC
  0
SECTION
  2
TABLES
  0
TABLE
  2
VPORT
  5
8
330
0
100
AcDbSymbolTable
 70
     1
  0
VPORT
  5
29
330
8
100
AcDbSymbolTableRecord
100
AcDbViewportTableRecord
  2
*Active
 70
     0
 10
0.0
 20
0.0
 11
1.0
 21
1.0
 12
39.3700787402
 22
39.3700787402
 13
0.0
 23
0.0
 14
0.5
 24
0.5
 15
0.5
 25
0.5
 16
0.0
 26
0.0
 36
1.0
 17
0.0
 27
0.0
 37
0.0
 40
78.7401574803
 41
1.0
 42
50.0
 43
0.0
 44
0.0
 50
0.0
 51
0.0
 71
     0
 72
  2000
 73
     1
 74
     3
 75
     0
 76
     0
 77
     0
 78
     0
281
     0
 65
     1
110
0.0
120
0.0
130
0.0
111
1.0
121
0.0
131
0.0
112
0.0
122
1.0
132
0.0
 79
     0
146
0.0
 60
     3
 61
     5
292
     1
282
     1
141
0.0
142
0.0
 63
   250
361
69
  0
ENDTAB
  0
TABLE
  2
LTYPE
  5
5
330
0
100
AcDbSymbolTable
 70
     6
  0
LTYPE
  5
14
330
5
100
AcDbSymbolTableRecord
100
AcDbLinetypeTableRecord
  2
ByBlock
 70
     0
  3

 72
    65
 73
     0
 40
0.0
  0
LTYPE
  5
15
330
5
100
AcDbSymbolTableRecord
100
AcDbLinetypeTableRecord
  2
ByLayer
 70
     0
  3

 72
    65
 73
     0
 40
0.0
  0
LTYPE
  5
16
330
5
100
AcDbSymbolTableRecord
100
AcDbLinetypeTableRecord
  2
Continuous
 70
     0
  3
Solid line
 72
    65
 73
     0
 40
0.0
  0
LTYPE
  5
6A
330
5
100
AcDbSymbolTableRecord
100
AcDbLinetypeTableRecord
  2
HIDDEN
 70
     0
  3
Hidden __ __ __ __ __ __ __ __ __ __ __ __ __ __
 72
    65
 73
     2
 40
0.075
 49
0.05
 74
     0
 49
-0.025
 74
     0
  0
LTYPE
  5
6B
330
5
100
AcDbSymbolTableRecord
100
AcDbLinetypeTableRecord
  2
PHANTOM
 70
     0
  3
Phantom ______  __  __  ______  __  __  ______
 72
    65
 73
     6
 40
0.5
 49
0.25
 74
     0
 49
-0.05
 74
     0
 49
0.05
 74
     0
 49
-0.05
 74
     0
 49
0.05
 74
     0
 49
-0.05
 74
     0
  0
LTYPE
  5
6C
330
5
100
AcDbSymbolTableRecord
100
AcDbLinetypeTableRecord
  2
CENTER
 70
     0
  3
Center ____ _ ____ _ ____ _ ____ _ ____ _ ____
 72
    65
 73
     4
 40
0.4
 49
0.25
 74
     0
 49
-0.05
 74
     0
 49
0.05
 74
     0
 49
-0.05
 74
     0
  0
LTYPE
  5
6D
330
5
100
AcDbSymbolTableRecord
100
AcDbLinetypeTableRecord
  2
CENTERX2
 70
     0
  3
Center (2x) ________  __  ________  __  _____
 72
    65
 73
     4
 40
0.8
 49
0.5
 74
     0
 49
-0.1
 74
     0
 49
0.1
 74
     0
 49
-0.1
 74
     0
  0
LTYPE
  5
6E
330
5
100
AcDbSymbolTableRecord
100
AcDbLinetypeTableRecord
  2
DOT2
 70
     0
  3
Dot (.5x) ........................................
 72
    65
 73
     2
 40
0.025
 49
0.0
 74
     0
 49
-0.025
 74
     0
  0
ENDTAB
  0
TABLE
  2
LAYER
  5
2
330
0
100
AcDbSymbolTable
 70
     1
  0
LAYER
  5
10
330
2
100
AcDbSymbolTableRecord
100
AcDbLayerTableRecord
  2
0
 70
     0
 62
     7
  6
Continuous
370
    -3
390
F
347
46
  0
ENDTAB
  0
TABLE
  2
STYLE
  5
3
330
0
100
AcDbSymbolTable
 70
     1
  0
STYLE
  5
11
330
3
100
AcDbSymbolTableRecord
100
AcDbTextStyleTableRecord
  2
STANDARD
 70
     0
 40
0.0
 41
1.0
 50
0.0
 71
     0
 42
0.1377952756
  3
GOTHIC.TTF
  4

1001
ACAD
1000
CENTURY GOTHIC
1071
       34
  0
ENDTAB
  0
TABLE
  2
VIEW
  5
6
330
0
100
AcDbSymbolTable
 70
     0
  0
ENDTAB
  0
TABLE
  2
UCS
  5
7
330
0
100
AcDbSymbolTable
 70
     0
  0
ENDTAB
  0
TABLE
  2
APPID
  5
9
330
0
100
AcDbSymbolTable
 70
     1
  0
APPID
  5
12
330
9
100
AcDbSymbolTableRecord
100
AcDbRegAppTableRecord
  2
ACAD
 70
     0
  0
ENDTAB
  0
TABLE
  2
DIMSTYLE
  5
A
330
0
100
AcDbSymbolTable
 70
     1
100
AcDbDimStyleTable
  0
DIMSTYLE
105
27
330
A
100
AcDbSymbolTableRecord
100
AcDbDimStyleTableRecord
  2
Standard
 70
     0
178
     0
340
11
  0
ENDTAB
  0
TABLE
  2
BLOCK_RECORD
  5
1
330
0
100
AcDbSymbolTable
 70
     1
  0
BLOCK_RECORD
  5
1F
330
1
100
AcDbSymbolTableRecord
100
AcDbBlockTableRecord
  2
*Model_Space
340
22
 70
     0
280
     1
281
     0
  0
BLOCK_RECORD
  5
1B
330
1
100
AcDbSymbolTableRecord
100
AcDbBlockTableRecord
  2
*Paper_Space
340
1E
 70
     0
280
     1
281
     0
  0
BLOCK_RECORD
  5
23
330
1
100
AcDbSymbolTableRecord
100
AcDbBlockTableRecord
  2
*Paper_Space0
340
26
 70
     0
280
     1
281
     0
  0
ENDTAB
  0
ENDSEC
  0
SECTION
  2
BLOCKS
  0
BLOCK
  5
20
330
1F
100
AcDbEntity
  8
0
100
AcDbBlockBegin
  2
*Model_Space
 70
     0
 10
0.0
 20
0.0
 30
0.0
  3
*Model_Space
  1
*Model_Space
  0
ENDBLK
  5
21
330
1F
100
AcDbEntity
  8
0
100
AcDbBlockEnd
  0
BLOCK
  5
1C
330
1B
100
AcDbEntity
 67
     1
  8
0
100
AcDbBlockBegin
  2
*Paper_Space
 70
     0
 10
0.0
 20
0.0
 30
0.0
  3
*Paper_Space
  1
*Paper_Space
  0
ENDBLK
  5
1D
330
1B
100
AcDbEntity
 67
     1
  8
0
100
AcDbBlockEnd
  0
BLOCK
  5
24
330
23
100
AcDbEntity
  8
0
100
AcDbBlockBegin
  2
*Paper_Space0
 70
     0
 10
0.0
 20
0.0
 30
0.0
  3
*Paper_Space0
  1
*Paper_Space0
  0
ENDBLK
  5
25
330
23
100
AcDbEntity
  8
0
100
AcDbBlockEnd
  0
ENDSEC
  0
SECTION
  2
ENTITIES
  0
ARC
  5
6F
330
1F
100
AcDbEntity
  8
0
  6
Continuous
 62
     7
370
    15
100
AcDbCircle
 10
37.7604859076
 20
38.4272669011
 30
0.0
 40
0.125
100
AcDbArc
 50
180.0
 51
269.9999999996
  0
LINE
  5
70
330
1F
100
AcDbEntity
  8
0
  6
Continuous
 62
     7
370
    15
100
AcDbLine
 10
38.0654858609
 20
38.8622666646
 30
0.0
 11
38.0654858609
 21
41.0272669344
 31
0.0
  0
ARC
  5
71
330
1F
100
AcDbEntity
  8
0
  6
Continuous
 62
     7
370
    15
100
AcDbCircle
 10
40.9604859076
 20
38.8622669011
 30
0.0
 40
0.125
100
AcDbArc
 50
270.0
 51
0.0
  0
ARC
  5
72
330
1F
100
AcDbEntity
  8
0
  6
Continuous
 62
     7
370
    15
100
AcDbCircle
 10
41.3904859076
 20
38.4272669011
 30
0.0
 40
0.125000000000334
100
AcDbArc
 50
270.0
 51
359.9999999996
  0
LINE
  5
73
330
1F
100
AcDbEntity
  8
0
  6
Continuous
 62
     7
370
    15
100
AcDbLine
 10
41.0854858669
 20
38.8622666646
 30
0.0
 11
41.0854858669
 21
41.0272669344
 31
0.0
  0
LINE
  5
74
330
1F
100
AcDbEntity
  8
0
  6
Continuous
 62
     7
370
    15
100
AcDbLine
 10
41.5154858595
 20
38.4272665698
 30
0.0
 11
41.5154858595
 21
41.4622670292
 31
0.0
  0
LINE
  5
75
330
1F
100
AcDbEntity
  8
0
  6
Continuous
 62
     7
370
    15
100
AcDbLine
 10
40.9604859509
 20
38.737267042
 30
0.0
 11
38.1904859235
 21
38.737267042
 31
0.0
  0
ARC
  5
76
330
1F
100
AcDbEntity
  8
0
  6
Continuous
 62
     7
370
    15
100
AcDbCircle
 10
40.9604859076
 20
41.0272669011
 30
0.0
 40
0.1250000000000071
100
AcDbArc
 50
0.0
 51
90.0
  0
ARC
  5
77
330
1F
100
AcDbEntity
  8
0
  6
Continuous
 62
     7
370
    15
100
AcDbCircle
 10
38.1904859076
 20
41.0272669011
 30
0.0
 40
0.1250000000000071
100
AcDbArc
 50
90.0
 51
180.0
  0
ARC
  5
78
330
1F
100
AcDbEntity
  8
0
  6
Continuous
 62
     7
370
    15
100
AcDbCircle
 10
38.1904859076
 20
38.8622669011
 30
0.0
 40
0.125
100
AcDbArc
 50
180.0
 51
270.0
  0
CIRCLE
  5
79
330
1F
100
AcDbEntity
  8
0
  6
Continuous
 62
     7
370
    15
100
AcDbCircle
 10
41.2505889834
 20
41.3459301966
 30
0.0
 40
0.0825000000000244
  0
CIRCLE
  5
7A
330
1F
100
AcDbEntity
  8
0
  6
Continuous
 62
     7
370
    15
100
AcDbCircle
 10
41.2505889834
 20
38.5436036056
 30
0.0
 40
0.0825000000000102
  0
LINE
  5
7B
330
1F
100
AcDbEntity
  8
0
  6
Continuous
 62
     7
370
    15
100
AcDbLine
 10
41.3904859435
 20
41.5872666519
 30
0.0
 11
37.7604859309
 21
41.5872666519
 31
0.0
  0
ARC
  5
7C
330
1F
100
AcDbEntity
  8
0
  6
Continuous
 62
     7
370
    15
100
AcDbCircle
 10
41.3904859076
 20
41.4622669011
 30
0.0
 40
0.1249999999999929
100
AcDbArc
 50
0.0
 51
90.0000000002
  0
CIRCLE
  5
7D
330
1F
100
AcDbEntity
  8
0
  6
Continuous
 62
     7
370
    15
100
AcDbCircle
 10
37.9003828317
 20
38.5436036056
 30
0.0
 40
0.0825000000000102
  0
LINE
  5
7E
330
1F
100
AcDbEntity
  8
0
  6
Continuous
 62
     7
370
    15
100
AcDbLine
 10
37.7604859309
 20
38.3022669471
 30
0.0
 11
41.3904859435
 21
38.3022669471
 31
0.0
  0
CIRCLE
  5
7F
330
1F
100
AcDbEntity
  8
0
  6
Continuous
 62
     7
370
    15
100
AcDbCircle
 10
37.9003828317
 20
41.3459301966
 30
0.0
 40
0.0825000000000173
  0
ARC
  5
80
330
1F
100
AcDbEntity
  8
0
  6
Continuous
 62
     7
370
    15
100
AcDbCircle
 10
37.7604859076
 20
41.4622669011
 30
0.0
 40
0.125
100
AcDbArc
 50
90.0
 51
179.9999999995
  0
LINE
  5
81
330
1F
100
AcDbEntity
  8
0
  6
Continuous
 62
     7
370
    15
100
AcDbLine
 10
37.6354858683
 20
41.4622670292
 30
0.0
 11
37.6354858683
 21
38.4272665698
 31
0.0
  0
LINE
  5
82
330
1F
100
AcDbEntity
  8
0
  6
Continuous
 62
     7
370
    15
100
AcDbLine
 10
40.9604859509
 20
41.152266557
 30
0.0
 11
38.1904859235
 21
41.152266557
 31
0.0
  0
LINE
  5
83
330
1F
100
AcDbEntity
  8
0
  6
Continuous
 62
     7
370
    15
100
AcDbLine
 10
38.7004859386
 20
39.6872665208
 30
0.0
 11
40.4504859358
 21
39.6872665208
 31
0.0
  0
LINE
  5
84
330
1F
100
AcDbEntity
  8
0
  6
Continuous
 62
     7
370
    15
100
AcDbLine
 10
38.7004859386
 20
39.1372670078
 30
0.0
 11
38.7004859386
 21
39.6872665208
 31
0.0
  0
LINE
  5
85
330
1F
100
AcDbEntity
  8
0
  6
Continuous
 62
     7
370
    15
100
AcDbLine
 10
40.4504859358
 20
39.6872665208
 30
0.0
 11
40.4504859358
 21
39.1372670078
 31
0.0
  0
LINE
  5
86
330
1F
100
AcDbEntity
  8
0
  6
Continuous
 62
     7
370
    15
100
AcDbLine
 10
40.4504859358
 20
39.1372670078
 30
0.0
 11
38.7004859386
 21
39.1372670078
 31
0.0
  0
LINE
  5
87
330
1F
100
AcDbEntity
  8
0
  6
Continuous
 62
     7
370
    15
100
AcDbLine
 10
36.5428827168
 20
29.178182696
 30
0.0
 11
36.5428827168
 21
29.1779292589
 31
0.0
  0
LINE
  5
88
330
1F
100
AcDbEntity
  8
0
  6
Continuous
 62
     7
370
    15
100
AcDbLine
 10
36.8452586637
 20
29.1779292589
 30
0.0
 11
36.8452586637
 21
29.178182696
 31
0.0
  0
LINE
  5
89
330
1F
100
AcDbEntity
  8
0
  6
Continuous
 62
     7
370
    15
100
AcDbLine
 10
42.3055069998
 20
29.1779292589
 30
0.0
 11
42.3055069998
 21
29.178182696
 31
0.0
  0
ARC
  5
8A
330
1F
100
AcDbEntity
  8
0
  6
Continuous
 62
     7
370
    15
100
AcDbCircle
 10
37.8353828317
 20
38.5024301966
 30
0.0
 40
0.2500000000000071
100
AcDbArc
 50
180.0
 51
270.0
  0
LINE
  5
8B
330
1F
100
AcDbEntity
  8
0
  6
Continuous
 62
     7
370
    15
100
AcDbLine
 10
37.8353828924
 20
38.2524301895
 30
0.0
 11
41.3153827711
 21
38.2524301895
 31
0.0
  0
ARC
  5
8C
330
1F
100
AcDbEntity
  8
0
  6
Continuous
 62
     7
370
    15
100
AcDbCircle
 10
41.3153828317
 20
41.3874301966
 30
0.0
 40
0.2500000000000071
100
AcDbArc
 50
0.0
 51
90.0
  0
ARC
  5
8D
330
1F
100
AcDbEntity
  8
0
  6
Continuous
 62
     7
370
    15
100
AcDbCircle
 10
37.8353828317
 20
41.3874301966
 30
0.0
 40
0.2500000000000071
100
AcDbArc
 50
90.0
 51
180.0
  0
LINE
  5
8E
330
1F
100
AcDbEntity
  8
0
  6
Continuous
 62
     7
370
    15
100
AcDbLine
 10
37.5853827671
 20
41.387430347
 30
0.0
 11
37.5853827671
 21
38.5024306081
 31
0.0
  0
LINE
  5
8F
330
1F
100
AcDbEntity
  8
0
  6
Continuous
 62
     7
370
    15
100
AcDbLine
 10
41.3153827711
 20
41.637430179
 30
0.0
 11
37.8353828924
 21
41.637430179
 31
0.0
  0
ARC
  5
90
330
1F
100
AcDbEntity
  8
0
  6
Continuous
 62
     7
370
    15
100
AcDbCircle
 10
41.3153828317
 20
38.5024301966
 30
0.0
 40
0.2500000000000071
100
AcDbArc
 50
270.0
 51
0.0
  0
LINE
  5
91
330
1F
100
AcDbEntity
  8
0
  6
Continuous
 62
     7
370
    15
100
AcDbLine
 10
41.5653828964
 20
38.5024306081
 30
0.0
 11
41.5653828964
 21
41.387430347
 31
0.0
  0
LINE
  5
92
330
1F
100
AcDbEntity
  8
0
  6
Continuous
 62
     7
370
    15
100
AcDbLine
 10
42.6078829467
 20
29.1779292589
 30
0.0
 11
42.6078829467
 21
29.178182696
 31
0.0
  0
CIRCLE
  5
93
330
1F
100
AcDbEntity
  8
0
  6
Continuous
 62
     7
370
    15
100
AcDbCircle
 10
37.9003828317
 20
41.3459301966
 30
0.0
 40
0.0625000000000071
  0
CIRCLE
  5
94
330
1F
100
AcDbEntity
  8
0
  6
Continuous
 62
     7
370
    15
100
AcDbCircle
 10
41.2503828317
 20
38.5439301966
 30
0.0
 40
0.0625000000000071
  0
CIRCLE
  5
95
330
1F
100
AcDbEntity
  8
0
  6
Continuous
 62
     7
370
    15
100
AcDbCircle
 10
37.9003828317
 20
38.5439301966
 30
0.0
 40
0.0625000000000071
  0
CIRCLE
  5
96
330
1F
100
AcDbEntity
  8
0
  6
Continuous
 62
     7
370
    15
100
AcDbCircle
 10
41.2503828317
 20
41.3459301966
 30
0.0
 40
0.0625000000000071
  0
LINE
  5
97
330
1F
100
AcDbEntity
  8
0
  6
Continuous
 62
     7
370
    15
100
AcDbLine
 10
36.8717346245
 20
50.7119302296
 30
0.0
 11
36.8717346245
 21
29.178182696
 31
0.0
  0
LINE
  5
98
330
1F
100
AcDbEntity
  8
0
  6
Continuous
 62
     7
370
    15
100
AcDbLine
 10
36.8717346245
 20
29.178182696
 30
0.0
 11
36.2342057493
 21
29.178182696
 31
0.0
  0
LINE
  5
99
330
1F
100
AcDbEntity
  8
0
  6
Continuous
 62
     7
370
    15
100
AcDbLine
 10
36.2342057493
 20
29.178182696
 30
0.0
 11
36.2342057493
 21
50.7119302296
 31
0.0
  0
LINE
  5
9A
330
1F
100
AcDbEntity
  8
0
  6
Continuous
 62
     7
370
    15
100
AcDbLine
 10
31.129580665
 20
29.178182696
 30
0.0
 11
31.129580665
 21
50.7119302296
 31
0.0
  0
LWPOLYLINE
  5
9B
330
1F
100
AcDbEntity
  8
0
  6
Continuous
 62
     7
370
    15
100
AcDbPolyline
 90
       37
 70
   128
 43
0.0
 10
32.8273556122
 20
30.1941814124
 10
32.8245854042
 20
30.2769262699
 10
32.8163586726
 20
30.3571555297
 10
32.8029253344
 20
30.4324310335
 10
32.7846942917
 20
30.5004695008
 10
32.762218178
 20
30.5592011957
 10
32.7361810388
 20
30.606842672
 10
32.7073736916
 20
30.6419460531
 10
32.6766714329
 20
30.6634436181
 10
32.645007052
 20
30.6706830012
 10
32.6133426712
 20
30.6634436181
 10
32.5826398258
 20
30.6419460531
 10
32.5538324786
 20
30.606842672
 10
32.5277953394
 20
30.5592011957
 10
32.5053198124
 20
30.5004695008
 10
32.487088183
 20
30.4324310335
 10
32.4736554315
 20
30.3571555297
 10
32.4654286999
 20
30.2769262699
 10
32.4626584919
 20
30.1941814124
 10
32.4654286999
 20
30.1114389016
 10
32.4736554315
 20
30.0312096417
 10
32.487088183
 20
29.9559317914
 10
32.5053198124
 20
29.887893324
 10
32.5277953394
 20
29.8291616292
 10
32.5538324786
 20
29.7815201528
 10
32.5826398258
 20
29.7464191183
 10
32.6133426712
 20
29.7249215533
 10
32.645007052
 20
29.7176821703
 10
32.6766714329
 20
29.7249215533
 10
32.7073736916
 20
29.7464191183
 10
32.7361810388
 20
29.7815201528
 10
32.762218178
 20
29.8291616292
 10
32.7846942917
 20
29.887893324
 10
32.8029253344
 20
29.9559317914
 10
32.8163586726
 20
30.0312096417
 10
32.8245854042
 20
30.1114389016
 10
32.8273556122
 20
30.1941814124
  0
LWPOLYLINE
  5
9C
330
1F
100
AcDbEntity
  8
0
  6
Continuous
 62
     7
370
    15
100
AcDbPolyline
 90
       37
 70
   128
 43
0.0
 10
35.6706934057
 20
30.1941814124
 10
35.6679231977
 20
30.2769262699
 10
35.6596964661
 20
30.3571555297
 10
35.6462634213
 20
30.4324310335
 10
35.6280320852
 20
30.5004695008
 10
35.6055562649
 20
30.5592011957
 10
35.5795191256
 20
30.606842672
 10
35.5507117784
 20
30.6419460531
 10
35.5200095198
 20
30.6634436181
 10
35.4883448456
 20
30.6706830012
 10
35.4566804647
 20
30.6634436181
 10
35.4259779127
 20
30.6419460531
 10
35.3971705655
 20
30.606842672
 10
35.3711334263
 20
30.5592011957
 10
35.3486576059
 20
30.5004695008
 10
35.3304262698
 20
30.4324310335
 10
35.316993225
 20
30.3571555297
 10
35.3087664934
 20
30.2769262699
 10
35.3059962854
 20
30.1941814124
 10
35.3087664934
 20
30.1114389016
 10
35.316993225
 20
30.0312096417
 10
35.3304262698
 20
29.9559317914
 10
35.3486576059
 20
29.887893324
 10
35.3711334263
 20
29.8291616292
 10
35.3971705655
 20
29.7815201528
 10
35.4259779127
 20
29.7464191183
 10
35.4566804647
 20
29.7249215533
 10
35.4883448456
 20
29.7176821703
 10
35.5200095198
 20
29.7249215533
 10
35.5507117784
 20
29.7464191183
 10
35.5795191256
 20
29.7815201528
 10
35.6055562649
 20
29.8291616292
 10
35.6280320852
 20
29.887893324
 10
35.6462634213
 20
29.9559317914
 10
35.6596964661
 20
30.0312096417
 10
35.6679231977
 20
30.1114389016
 10
35.6706934057
 20
30.1941814124
  0
LWPOLYLINE
  5
9D
330
1F
100
AcDbEntity
  8
0
  6
Continuous
 62
     7
370
    15
100
AcDbPolyline
 90
       37
 70
   128
 43
0.0
 10
35.6706934057
 20
49.6961821636
 10
35.6679231977
 20
49.7789255544
 10
35.6596964661
 20
49.8591548143
 10
35.6462634213
 20
49.9344322247
 10
35.6280320852
 20
50.0024703987
 10
35.6055562649
 20
50.0612023869
 10
35.5795191256
 20
50.1088432765
 10
35.5507117784
 20
50.143945631
 10
35.5200095198
 20
50.1654430494
 10
35.4883448456
 20
50.1726821391
 10
35.4566804647
 20
50.1654430494
 10
35.4259779127
 20
50.143945631
 10
35.3971705655
 20
50.1088432765
 10
35.3711334263
 20
50.0612023869
 10
35.3486576059
 20
50.0024703987
 10
35.3304262698
 20
49.9344322247
 10
35.316993225
 20
49.8591548143
 10
35.3087664934
 20
49.7789255544
 10
35.3059962854
 20
49.6961821636
 10
35.3087664934
 20
49.6134387728
 10
35.316993225
 20
49.533209513
 10
35.3304262698
 20
49.4579321026
 10
35.3486576059
 20
49.3898939286
 10
35.3711334263
 20
49.3311619404
 10
35.3971705655
 20
49.2835210507
 10
35.4259779127
 20
49.2484186962
 10
35.4566804647
 20
49.2269212779
 10
35.4883448456
 20
49.2196821882
 10
35.5200095198
 20
49.2269212779
 10
35.5507117784
 20
49.2484186962
 10
35.5795191256
 20
49.2835210507
 10
35.6055562649
 20
49.3311619404
 10
35.6280320852
 20
49.3898939286
 10
35.6462634213
 20
49.4579321026
 10
35.6596964661
 20
49.533209513
 10
35.6679231977
 20
49.6134387728
 10
35.6706934057
 20
49.6961821636
  0
LWPOLYLINE
  5
9E
330
1F
100
AcDbEntity
  8
0
  6
Continuous
 62
     7
370
    15
100
AcDbPolyline
 90
       37
 70
   128
 43
0.0
 10
32.8273556122
 20
49.6961821636
 10
32.8245854042
 20
49.7789255544
 10
32.8163586726
 20
49.8591548143
 10
32.8029253344
 20
49.9344322247
 10
32.7846942917
 20
50.0024703987
 10
32.762218178
 20
50.0612023869
 10
32.7361810388
 20
50.1088432765
 10
32.7073736916
 20
50.143945631
 10
32.6766714329
 20
50.1654430494
 10
32.645007052
 20
50.1726821391
 10
32.6133426712
 20
50.1654430494
 10
32.5826398258
 20
50.143945631
 10
32.5538324786
 20
50.1088432765
 10
32.5277953394
 20
50.0612023869
 10
32.5053198124
 20
50.0024703987
 10
32.487088183
 20
49.9344322247
 10
32.4736554315
 20
49.8591548143
 10
32.4654286999
 20
49.7789255544
 10
32.4626584919
 20
49.6961821636
 10
32.4654286999
 20
49.6134387728
 10
32.4736554315
 20
49.533209513
 10
32.487088183
 20
49.4579321026
 10
32.5053198124
 20
49.3898939286
 10
32.5277953394
 20
49.3311619404
 10
32.5538324786
 20
49.2835210507
 10
32.5826398258
 20
49.2484186962
 10
32.6133426712
 20
49.2269212779
 10
32.645007052
 20
49.2196821882
 10
32.6766714329
 20
49.2269212779
 10
32.7073736916
 20
49.2484186962
 10
32.7361810388
 20
49.2835210507
 10
32.762218178
 20
49.3311619404
 10
32.7846942917
 20
49.3898939286
 10
32.8029253344
 20
49.4579321026
 10
32.8163586726
 20
49.533209513
 10
32.8245854042
 20
49.6134387728
 10
32.8273556122
 20
49.6961821636
  0
LINE
  5
9F
330
1F
100
AcDbEntity
  8
0
  6
Continuous
 62
     7
370
    15
100
AcDbLine
 10
36.2342057493
 20
29.178182696
 30
0.0
 11
31.129580665
 21
29.178182696
 31
0.0
  0
ARC
  5
A0
330
1F
100
AcDbEntity
  8
0
  6
Continuous
 62
     7
370
    15
100
AcDbCircle
 10
36.7248028719
 20
30.1941814124
 30
0.0
 40
1.123821883036029
100
AcDbArc
 50
165.6251105009
 51
194.3748894991
  0
ARC
  5
A1
330
1F
100
AcDbEntity
  8
0
  6
Continuous
 62
     7
370
    15
100
AcDbCircle
 10
36.7248073351
 20
49.6961821636
 30
0.0
 40
1.123826279299073
100
AcDbArc
 50
165.6251525059
 51
194.3748474941
  0
ARC
  5
A2
330
1F
100
AcDbEntity
  8
0
  6
Continuous
 62
     7
370
    15
100
AcDbCircle
 10
33.8814650784
 20
30.1941814124
 30
0.0
 40
1.123821883036029
100
AcDbArc
 50
165.6251105009
 51
194.3748894991
  0
ARC
  5
A3
330
1F
100
AcDbEntity
  8
0
  6
Continuous
 62
     7
370
    15
100
AcDbCircle
 10
33.8814695416
 20
49.6961821636
 30
0.0
 40
1.123826279299073
100
AcDbArc
 50
165.6251525059
 51
194.3748474941
  0
LINE
  5
A4
330
1F
100
AcDbEntity
  8
0
  6
Continuous
 62
     7
370
    15
100
AcDbLine
 10
42.279031039
 20
29.178182696
 30
0.0
 11
42.279031039
 21
50.7119302296
 31
0.0
  0
LINE
  5
A5
330
1F
100
AcDbEntity
  8
0
  6
Continuous
 62
     7
370
    15
100
AcDbLine
 10
42.9165599142
 20
50.7119302296
 30
0.0
 11
42.9165599142
 21
29.178182696
 31
0.0
  0
LINE
  5
A6
330
1F
100
AcDbEntity
  8
0
  6
Continuous
 62
     7
370
    15
100
AcDbLine
 10
42.279031039
 20
29.178182696
 30
0.0
 11
42.9165599142
 21
29.178182696
 31
0.0
  0
LINE
  5
A7
330
1F
100
AcDbEntity
  8
0
  6
Continuous
 62
     7
370
    15
100
AcDbLine
 10
48.0211849985
 20
50.7119302296
 30
0.0
 11
48.0211849985
 21
29.178182696
 31
0.0
  0
LWPOLYLINE
  5
A8
330
1F
100
AcDbEntity
  8
0
  6
Continuous
 62
     7
370
    15
100
AcDbPolyline
 90
       37
 70
   128
 43
0.0
 10
46.3234100513
 20
49.6961821636
 10
46.3261802593
 20
49.6134387728
 10
46.3344069909
 20
49.533209513
 10
46.3478403291
 20
49.4579321026
 10
46.3660713718
 20
49.3898939286
 10
46.3885474855
 20
49.3311619404
 10
46.4145846247
 20
49.2835210507
 10
46.4433919719
 20
49.2484186962
 10
46.4740942306
 20
49.2269212779
 10
46.5057586115
 20
49.2196821882
 10
46.5374229923
 20
49.2269212779
 10
46.5681258377
 20
49.2484186962
 10
46.5969331849
 20
49.2835210507
 10
46.6229703241
 20
49.3311619404
 10
46.6454458511
 20
49.3898939286
 10
46.6636774805
 20
49.4579321026
 10
46.677110232
 20
49.533209513
 10
46.6853369636
 20
49.6134387728
 10
46.6881071716
 20
49.6961821636
 10
46.6853369636
 20
49.7789255544
 10
46.677110232
 20
49.8591548143
 10
46.6636774805
 20
49.9344322247
 10
46.6454458511
 20
50.0024703987
 10
46.6229703241
 20
50.0612023869
 10
46.5969331849
 20
50.1088432765
 10
46.5681258377
 20
50.143945631
 10
46.5374229923
 20
50.1654430494
 10
46.5057586115
 20
50.1726821391
 10
46.4740942306
 20
50.1654430494
 10
46.4433919719
 20
50.143945631
 10
46.4145846247
 20
50.1088432765
 10
46.3885474855
 20
50.0612023869
 10
46.3660713718
 20
50.0024703987
 10
46.3478403291
 20
49.9344322247
 10
46.3344069909
 20
49.8591548143
 10
46.3261802593
 20
49.7789255544
 10
46.3234100513
 20
49.6961821636
  0
LWPOLYLINE
  5
A9
330
1F
100
AcDbEntity
  8
0
  6
Continuous
 62
     7
370
    15
100
AcDbPolyline
 90
       37
 70
   128
 43
0.0
 10
43.4800722578
 20
49.6961821636
 10
43.4828424658
 20
49.6134387728
 10
43.4910691974
 20
49.533209513
 10
43.5045022422
 20
49.4579321026
 10
43.5227335783
 20
49.3898939286
 10
43.5452093986
 20
49.3311619404
 10
43.5712465379
 20
49.2835210507
 10
43.6000538851
 20
49.2484186962
 10
43.6307561437
 20
49.2269212779
 10
43.6624208179
 20
49.2196821882
 10
43.6940851988
 20
49.2269212779
 10
43.7247877508
 20
49.2484186962
 10
43.753595098
 20
49.2835210507
 10
43.7796322372
 20
49.3311619404
 10
43.8021080576
 20
49.3898939286
 10
43.8203393936
 20
49.4579321026
 10
43.8337724385
 20
49.533209513
 10
43.8419991701
 20
49.6134387728
 10
43.8447693781
 20
49.6961821636
 10
43.8419991701
 20
49.7789255544
 10
43.8337724385
 20
49.8591548143
 10
43.8203393936
 20
49.9344322247
 10
43.8021080576
 20
50.0024703987
 10
43.7796322372
 20
50.0612023869
 10
43.753595098
 20
50.1088432765
 10
43.7247877508
 20
50.143945631
 10
43.6940851988
 20
50.1654430494
 10
43.6624208179
 20
50.1726821391
 10
43.6307561437
 20
50.1654430494
 10
43.6000538851
 20
50.143945631
 10
43.5712465379
 20
50.1088432765
 10
43.5452093986
 20
50.0612023869
 10
43.5227335783
 20
50.0024703987
 10
43.5045022422
 20
49.9344322247
 10
43.4910691974
 20
49.8591548143
 10
43.4828424658
 20
49.7789255544
 10
43.4800722578
 20
49.6961821636
  0
LWPOLYLINE
  5
AA
330
1F
100
AcDbEntity
  8
0
  6
Continuous
 62
     7
370
    15
100
AcDbPolyline
 90
       37
 70
   128
 43
0.0
 10
43.4800722578
 20
30.1941814124
 10
43.4828424658
 20
30.1114389016
 10
43.4910691974
 20
30.0312096417
 10
43.5045022422
 20
29.9559317914
 10
43.5227335783
 20
29.887893324
 10
43.5452093986
 20
29.8291616292
 10
43.5712465379
 20
29.7815201528
 10
43.6000538851
 20
29.7464191183
 10
43.6307561437
 20
29.7249215533
 10
43.6624208179
 20
29.7176821703
 10
43.6940851988
 20
29.7249215533
 10
43.7247877508
 20
29.7464191183
 10
43.753595098
 20
29.7815201528
 10
43.7796322372
 20
29.8291616292
 10
43.8021080576
 20
29.887893324
 10
43.8203393936
 20
29.9559317914
 10
43.8337724385
 20
30.0312096417
 10
43.8419991701
 20
30.1114389016
 10
43.8447693781
 20
30.1941814124
 10
43.8419991701
 20
30.2769262699
 10
43.8337724385
 20
30.3571555297
 10
43.8203393936
 20
30.4324310335
 10
43.8021080576
 20
30.5004695008
 10
43.7796322372
 20
30.5592011957
 10
43.753595098
 20
30.606842672
 10
43.7247877508
 20
30.6419460531
 10
43.6940851988
 20
30.6634436181
 10
43.6624208179
 20
30.6706830012
 10
43.6307561437
 20
30.6634436181
 10
43.6000538851
 20
30.6419460531
 10
43.5712465379
 20
30.606842672
 10
43.5452093986
 20
30.5592011957
 10
43.5227335783
 20
30.5004695008
 10
43.5045022422
 20
30.4324310335
 10
43.4910691974
 20
30.3571555297
 10
43.4828424658
 20
30.2769262699
 10
43.4800722578
 20
30.1941814124
  0
LWPOLYLINE
  5
AB
330
1F
100
AcDbEntity
  8
0
  6
Continuous
 62
     7
370
    15
100
AcDbPolyline
 90
       37
 70
   128
 43
0.0
 10
46.3234100513
 20
30.1941814124
 10
46.3261802593
 20
30.1114389016
 10
46.3344069909
 20
30.0312096417
 10
46.3478403291
 20
29.9559317914
 10
46.3660713718
 20
29.887893324
 10
46.3885474855
 20
29.8291616292
 10
46.4145846247
 20
29.7815201528
 10
46.4433919719
 20
29.7464191183
 10
46.4740942306
 20
29.7249215533
 10
46.5057586115
 20
29.7176821703
 10
46.5374229923
 20
29.7249215533
 10
46.5681258377
 20
29.7464191183
 10
46.5969331849
 20
29.7815201528
 10
46.6229703241
 20
29.8291616292
 10
46.6454458511
 20
29.887893324
 10
46.6636774805
 20
29.9559317914
 10
46.677110232
 20
30.0312096417
 10
46.6853369636
 20
30.1114389016
 10
46.6881071716
 20
30.1941814124
 10
46.6853369636
 20
30.2769262699
 10
46.677110232
 20
30.3571555297
 10
46.6636774805
 20
30.4324310335
 10
46.6454458511
 20
30.5004695008
 10
46.6229703241
 20
30.5592011957
 10
46.5969331849
 20
30.606842672
 10
46.5681258377
 20
30.6419460531
 10
46.5374229923
 20
30.6634436181
 10
46.5057586115
 20
30.6706830012
 10
46.4740942306
 20
30.6634436181
 10
46.4433919719
 20
30.6419460531
 10
46.4145846247
 20
30.606842672
 10
46.3885474855
 20
30.5592011957
 10
46.3660713718
 20
30.5004695008
 10
46.3478403291
 20
30.4324310335
 10
46.3344069909
 20
30.3571555297
 10
46.3261802593
 20
30.2769262699
 10
46.3234100513
 20
30.1941814124
  0
LINE
  5
AC
330
1F
100
AcDbEntity
  8
0
  6
Continuous
 62
     7
370
    15
100
AcDbLine
 10
48.0211849985
 20
29.178182696
 30
0.0
 11
42.9165599142
 21
29.178182696
 31
0.0
  0
ARC
  5
AD
330
1F
100
AcDbEntity
  8
0
  6
Continuous
 62
     7
370
    15
100
AcDbCircle
 10
42.4259583284
 20
49.6961821636
 30
0.0
 40
1.123826279299073
100
AcDbArc
 50
345.6251525059
 51
14.3748474941
  0
ARC
  5
AE
330
1F
100
AcDbEntity
  8
0
  6
Continuous
 62
     7
370
    15
100
AcDbCircle
 10
42.4259627916
 20
30.1941814124
 30
0.0
 40
1.123821883036029
100
AcDbArc
 50
345.6251105009
 51
14.3748894991
  0
ARC
  5
AF
330
1F
100
AcDbEntity
  8
0
  6
Continuous
 62
     7
370
    15
100
AcDbCircle
 10
45.2692961219
 20
49.6961821636
 30
0.0
 40
1.123826279299066
100
AcDbArc
 50
345.6251525059
 51
14.3748474941
  0
ARC
  5
B0
330
1F
100
AcDbEntity
  8
0
  6
Continuous
 62
     7
370
    15
100
AcDbCircle
 10
45.2693005851
 20
30.1941814124
 30
0.0
 40
1.123821883036029
100
AcDbArc
 50
345.6251105009
 51
14.3748894991
  0
LINE
  5
B1
330
1F
100
AcDbEntity
  8
0
  6
Continuous
 62
     7
370
    15
100
AcDbLine
 10
31.9643830213
 20
29.178182696
 30
0.0
 11
31.9643830213
 21
29.1779292589
 31
0.0
  0
LINE
  5
B2
330
1F
100
AcDbEntity
  8
0
  6
Continuous
 62
     7
370
    15
100
AcDbLine
 10
32.378596583
 20
29.178182696
 30
0.0
 11
32.378596583
 21
29.1779292589
 31
0.0
  0
LINE
  5
B3
330
1F
100
AcDbEntity
  8
0
  6
Continuous
 62
     7
370
    15
100
AcDbLine
 10
46.7721690805
 20
29.178182696
 30
0.0
 11
46.7721690805
 21
29.1779292589
 31
0.0
  0
LINE
  5
B4
330
1F
100
AcDbEntity
  8
0
  6
Continuous
 62
     7
370
    15
100
AcDbLine
 10
47.1863826422
 20
29.178182696
 30
0.0
 11
47.1863826422
 21
29.1779292589
 31
0.0
  0
LINE
  5
B5
330
1F
100
AcDbEntity
  8
0
  6
Continuous
 62
     7
370
    15
100
AcDbLine
 10
36.1693827648
 20
51.4419301966
 30
0.0
 11
36.1693827648
 21
50.7119302296
 31
0.0
  0
LINE
  5
B6
330
1F
100
AcDbEntity
  8
0
  6
Continuous
 62
     7
370
    15
100
AcDbLine
 10
42.9813828987
 20
51.4419301966
 30
0.0
 11
36.1693827648
 21
51.4419301966
 31
0.0
  0
LINE
  5
B7
330
1F
100
AcDbEntity
  8
0
  6
Continuous
 62
     7
370
    15
100
AcDbLine
 10
42.9813828987
 20
51.4419301966
 30
0.0
 11
42.9813828987
 21
50.7119302296
 31
0.0
  0
LINE
  5
B8
330
1F
100
AcDbEntity
  8
0
  6
Continuous
 62
     7
370
    15
100
AcDbLine
 10
42.9813828987
 20
50.7119302296
 30
0.0
 11
36.1693827648
 21
50.7119302296
 31
0.0
  0
LINE
  5
B9
330
1F
100
AcDbEntity
  8
0
  6
Continuous
 62
     7
370
    15
100
AcDbLine
 10
48.0765269725
 20
51.4419301966
 30
0.0
 11
42.9813828987
 21
51.4419301966
 31
0.0
  0
LINE
  5
BA
330
1F
100
AcDbEntity
  8
0
  6
Continuous
 62
     7
370
    15
100
AcDbLine
 10
48.0765269725
 20
51.4419301966
 30
0.0
 11
48.0765269725
 21
50.7119302296
 31
0.0
  0
LINE
  5
BB
330
1F
100
AcDbEntity
  8
0
  6
Continuous
 62
     7
370
    15
100
AcDbLine
 10
48.0765269725
 20
50.7119302296
 30
0.0
 11
42.9813828987
 21
50.7119302296
 31
0.0
  0
LINE
  5
BC
330
1F
100
AcDbEntity
  8
0
  6
Continuous
 62
     7
370
    15
100
AcDbLine
 10
31.074238691
 20
51.4419301966
 30
0.0
 11
31.074238691
 21
50.7119302296
 31
0.0
  0
LINE
  5
BD
330
1F
100
AcDbEntity
  8
0
  6
Continuous
 62
     7
370
    15
100
AcDbLine
 10
36.1693827648
 20
50.7119302296
 30
0.0
 11
31.074238691
 21
50.7119302296
 31
0.0
  0
LINE
  5
BE
330
1F
100
AcDbEntity
  8
0
  6
Continuous
 62
     7
370
    15
100
AcDbLine
 10
36.1693827648
 20
51.4419301966
 30
0.0
 11
31.074238691
 21
51.4419301966
 31
0.0
  0
LINE
  5
BF
330
1F
100
AcDbEntity
  8
0
  6
Continuous
 62
     7
370
    15
100
AcDbLine
 10
48.0765269725
 20
28.4479295853
 30
0.0
 11
48.0765269725
 21
29.1779292589
 31
0.0
  0
LINE
  5
C0
330
1F
100
AcDbEntity
  8
0
  6
Continuous
 62
     7
370
    15
100
AcDbLine
 10
42.9813828987
 20
28.4479295853
 30
0.0
 11
42.9813828987
 21
29.1779292589
 31
0.0
  0
LINE
  5
C1
330
1F
100
AcDbEntity
  8
0
  6
Continuous
 62
     7
370
    15
100
AcDbLine
 10
42.9813828987
 20
29.1779292589
 30
0.0
 11
48.0765269725
 21
29.1779292589
 31
0.0
  0
LINE
  5
C2
330
1F
100
AcDbEntity
  8
0
  6
Continuous
 62
     7
370
    15
100
AcDbLine
 10
42.9813828987
 20
28.4479295853
 30
0.0
 11
48.0765269725
 21
28.4479295853
 31
0.0
  0
LINE
  5
C3
330
1F
100
AcDbEntity
  8
0
  6
Continuous
 62
     7
370
    15
100
AcDbLine
 10
36.1693827648
 20
28.4479295853
 30
0.0
 11
36.1693827648
 21
29.1779292589
 31
0.0
  0
LINE
  5
C4
330
1F
100
AcDbEntity
  8
0
  6
Continuous
 62
     7
370
    15
100
AcDbLine
 10
36.1693827648
 20
29.1779292589
 30
0.0
 11
42.9813828987
 21
29.1779292589
 31
0.0
  0
LINE
  5
C5
330
1F
100
AcDbEntity
  8
0
  6
Continuous
 62
     7
370
    15
100
AcDbLine
 10
36.1693827648
 20
28.4479295853
 30
0.0
 11
42.9813828987
 21
28.4479295853
 31
0.0
  0
LINE
  5
C6
330
1F
100
AcDbEntity
  8
0
  6
Continuous
 62
     7
370
    15
100
AcDbLine
 10
31.074238691
 20
28.4479295853
 30
0.0
 11
31.074238691
 21
29.1779292589
 31
0.0
  0
LINE
  5
C7
330
1F
100
AcDbEntity
  8
0
  6
Continuous
 62
     7
370
    15
100
AcDbLine
 10
31.074238691
 20
29.1779292589
 30
0.0
 11
36.1693827648
 21
29.1779292589
 31
0.0
  0
LINE
  5
C8
330
1F
100
AcDbEntity
  8
0
  6
Continuous
 62
     7
370
    15
100
AcDbLine
 10
31.074238691
 20
28.4479295853
 30
0.0
 11
36.1693827648
 21
28.4479295853
 31
0.0
  0
LINE
  5
C9
330
1F
100
AcDbEntity
  8
0
  6
Continuous
 62
     7
370
    15
100
AcDbLine
 10
7.0073637637
 20
29.1779292589
 30
0.0
 11
7.0073637637
 21
29.178182696
 31
0.0
  0
LINE
  5
CA
330
1F
100
AcDbEntity
  8
0
  6
Continuous
 62
     7
370
    15
100
AcDbLine
 10
7.7373634374
 20
29.1779292589
 30
0.0
 11
7.7373634374
 21
29.178182696
 31
0.0
  0
LINE
  5
CB
330
1F
100
AcDbEntity
  8
0
  6
Continuous
 62
     7
370
    15
100
AcDbLine
 10
6.9424686201
 20
50.7119302296
 30
0.0
 11
6.9424686201
 21
29.178182696
 31
0.0
  0
LINE
  5
CC
330
1F
100
AcDbEntity
  8
0
  6
Continuous
 62
     7
370
    15
100
AcDbLine
 10
19.2660633235
 20
50.7121822001
 30
0.0
 11
19.2661243362
 21
50.7121822001
 31
0.0
  0
LINE
  5
CD
330
1F
100
AcDbEntity
  8
0
  6
Continuous
 62
     7
370
    15
100
AcDbLine
 10
19.2661243362
 20
50.7121822001
 30
0.0
 11
19.2661243362
 21
29.178182696
 31
0.0
  0
LWPOLYLINE
  5
CE
330
1F
100
AcDbEntity
  8
0
  6
Continuous
 62
     7
370
    15
100
AcDbPolyline
 90
       37
 70
   128
 43
0.0
 10
15.1673311524
 20
49.6961821636
 10
15.1740190752
 20
49.6134387728
 10
15.1938810324
 20
49.533209513
 10
15.2263115911
 20
49.4579321026
 10
15.2703251626
 20
49.3898939286
 10
15.3245865091
 20
49.3311619404
 10
15.387445943
 20
49.2835210507
 10
15.4569932996
 20
49.2484186962
 10
15.5311166033
 20
49.2269212779
 10
15.6075607335
 20
49.2196821882
 10
15.6840048638
 20
49.2269212779
 10
15.7581281675
 20
49.2484186962
 10
15.8276755241
 20
49.2835210507
 10
15.8905349579
 20
49.3311619404
 10
15.9447963044
 20
49.3898939286
 10
15.988809876
 20
49.4579321026
 10
16.0212404347
 20
49.533209513
 10
16.0411000452
 20
49.6134387728
 10
16.0477903146
 20
49.6961821636
 10
16.0411000452
 20
49.7789255544
 10
16.0212404347
 20
49.8591548143
 10
15.988809876
 20
49.9344322247
 10
15.9447963044
 20
50.0024703987
 10
15.8905349579
 20
50.0612023869
 10
15.8276755241
 20
50.1088432765
 10
15.7581281675
 20
50.143945631
 10
15.6840048638
 20
50.1654430494
 10
15.6075607335
 20
50.1726821391
 10
15.5311166033
 20
50.1654430494
 10
15.4569932996
 20
50.143945631
 10
15.387445943
 20
50.1088432765
 10
15.3245865091
 20
50.0612023869
 10
15.2703251626
 20
50.0024703987
 10
15.2263115911
 20
49.9344322247
 10
15.1938810324
 20
49.8591548143
 10
15.1740190752
 20
49.7789255544
 10
15.1673311524
 20
49.6961821636
  0
LWPOLYLINE
  5
CF
330
1F
100
AcDbEntity
  8
0
  6
Continuous
 62
     7
370
    15
100
AcDbPolyline
 90
       37
 70
   128
 43
0.0
 10
8.3029070908
 20
49.6961821636
 10
8.3095950136
 20
49.6134387728
 10
8.3294557975
 20
49.533209513
 10
8.3618863562
 20
49.4579321026
 10
8.405901101
 20
49.3898939286
 10
8.4601624475
 20
49.3311619404
 10
8.5230218814
 20
49.2835210507
 10
8.5925680647
 20
49.2484186962
 10
8.6666901951
 20
49.2269212779
 10
8.7431354986
 20
49.2196821882
 10
8.8195808022
 20
49.2269212779
 10
8.8937029326
 20
49.2484186962
 10
8.9632502892
 20
49.2835210507
 10
9.026109723
 20
49.3311619404
 10
9.0803698962
 20
49.3898939286
 10
9.1243846411
 20
49.4579321026
 10
9.1568151998
 20
49.533209513
 10
9.1766759837
 20
49.6134387728
 10
9.1833639064
 20
49.6961821636
 10
9.1766759837
 20
49.7789255544
 10
9.1568151998
 20
49.8591548143
 10
9.1243846411
 20
49.9344322247
 10
9.0803698962
 20
50.0024703987
 10
9.026109723
 20
50.0612023869
 10
8.9632502892
 20
50.1088432765
 10
8.8937029326
 20
50.143945631
 10
8.8195808022
 20
50.1654430494
 10
8.7431354986
 20
50.1726821391
 10
8.6666901951
 20
50.1654430494
 10
8.5925680647
 20
50.143945631
 10
8.5230218814
 20
50.1088432765
 10
8.4601624475
 20
50.0612023869
 10
8.405901101
 20
50.0024703987
 10
8.3618863562
 20
49.9344322247
 10
8.3294557975
 20
49.8591548143
 10
8.3095950136
 20
49.7789255544
 10
8.3029070908
 20
49.6961821636
  0
LWPOLYLINE
  5
D0
330
1F
100
AcDbEntity
  8
0
  6
Continuous
 62
     7
370
    15
100
AcDbPolyline
 90
       37
 70
   128
 43
0.0
 10
8.3029070908
 20
30.1941814124
 10
8.3095950136
 20
30.1114389016
 10
8.3294557975
 20
30.0312096417
 10
8.3618863562
 20
29.9559317914
 10
8.405901101
 20
29.887893324
 10
8.4601624475
 20
29.8291616292
 10
8.5230218814
 20
29.7815201528
 10
8.5925680647
 20
29.7464191183
 10
8.6666901951
 20
29.7249215533
 10
8.7431354986
 20
29.7176821703
 10
8.8195808022
 20
29.7249215533
 10
8.8937029326
 20
29.7464191183
 10
8.9632502892
 20
29.7815201528
 10
9.026109723
 20
29.8291616292
 10
9.0803698962
 20
29.887893324
 10
9.1243846411
 20
29.9559317914
 10
9.1568151998
 20
30.0312096417
 10
9.1766759837
 20
30.1114389016
 10
9.1833639064
 20
30.1941814124
 10
9.1766759837
 20
30.2769262699
 10
9.1568151998
 20
30.3571555297
 10
9.1243846411
 20
30.4324310335
 10
9.0803698962
 20
30.5004695008
 10
9.026109723
 20
30.5592011957
 10
8.9632502892
 20
30.606842672
 10
8.8937029326
 20
30.6419460531
 10
8.8195808022
 20
30.6634436181
 10
8.7431354986
 20
30.6706830012
 10
8.6666901951
 20
30.6634436181
 10
8.5925680647
 20
30.6419460531
 10
8.5230218814
 20
30.606842672
 10
8.4601624475
 20
30.5592011957
 10
8.405901101
 20
30.5004695008
 10
8.3618863562
 20
30.4324310335
 10
8.3294557975
 20
30.3571555297
 10
8.3095950136
 20
30.2769262699
 10
8.3029070908
 20
30.1941814124
  0
LWPOLYLINE
  5
D1
330
1F
100
AcDbEntity
  8
0
  6
Continuous
 62
     7
370
    15
100
AcDbPolyline
 90
       37
 70
   128
 43
0.0
 10
15.1673311524
 20
30.1941814124
 10
15.1740190752
 20
30.1114389016
 10
15.1938810324
 20
30.0312096417
 10
15.2263115911
 20
29.9559317914
 10
15.2703251626
 20
29.887893324
 10
15.3245865091
 20
29.8291616292
 10
15.387445943
 20
29.7815201528
 10
15.4569932996
 20
29.7464191183
 10
15.5311166033
 20
29.7249215533
 10
15.6075607335
 20
29.7176821703
 10
15.6840048638
 20
29.7249215533
 10
15.7581281675
 20
29.7464191183
 10
15.8276755241
 20
29.7815201528
 10
15.8905349579
 20
29.8291616292
 10
15.9447963044
 20
29.887893324
 10
15.988809876
 20
29.9559317914
 10
16.0212404347
 20
30.0312096417
 10
16.0411000452
 20
30.1114389016
 10
16.0477903146
 20
30.1941814124
 10
16.0411000452
 20
30.2769262699
 10
16.0212404347
 20
30.3571555297
 10
15.988809876
 20
30.4324310335
 10
15.9447963044
 20
30.5004695008
 10
15.8905349579
 20
30.5592011957
 10
15.8276755241
 20
30.606842672
 10
15.7581281675
 20
30.6419460531
 10
15.6840048638
 20
30.6634436181
 10
15.6075607335
 20
30.6706830012
 10
15.5311166033
 20
30.6634436181
 10
15.4569932996
 20
30.6419460531
 10
15.387445943
 20
30.606842672
 10
15.3245865091
 20
30.5592011957
 10
15.2703251626
 20
30.5004695008
 10
15.2263115911
 20
30.4324310335
 10
15.1938810324
 20
30.3571555297
 10
15.1740190752
 20
30.2769262699
 10
15.1673311524
 20
30.1941814124
  0
LINE
  5
D2
330
1F
100
AcDbEntity
  8
0
  6
Continuous
 62
     7
370
    15
100
AcDbLine
 10
19.2661243362
 20
29.178182696
 30
0.0
 11
6.9424686201
 21
29.178182696
 31
0.0
  0
LINE
  5
D3
330
1F
100
AcDbEntity
  8
0
  6
Continuous
 62
     7
370
    15
100
AcDbLine
 10
19.545482389
 20
50.7121822001
 30
0.0
 11
19.545482389
 21
29.178182696
 31
0.0
  0
LINE
  5
D4
330
1F
100
AcDbEntity
  8
0
  6
Continuous
 62
     7
370
    15
100
AcDbLine
 10
19.545482389
 20
50.7121822001
 30
0.0
 11
19.2661243362
 21
50.7121822001
 31
0.0
  0
LINE
  5
D5
330
1F
100
AcDbEntity
  8
0
  6
Continuous
 62
     7
370
    15
100
AcDbLine
 10
19.2661243362
 20
29.178182696
 30
0.0
 11
19.545482389
 21
29.178182696
 31
0.0
  0
ARC
  5
D6
330
1F
100
AcDbEntity
  8
0
  6
Continuous
 62
     7
370
    15
100
AcDbCircle
 10
15.752562408
 20
30.177737604
 30
0.0
 40
0.4630639294099904
100
AcDbArc
 50
177.9649484878
 51
259.5771981231
  0
ARC
  5
D7
330
1F
100
AcDbEntity
  8
0
  6
Continuous
 62
     7
370
    15
100
AcDbCircle
 10
15.7542160224
 20
30.2092993262
 30
0.0
 40
0.4646714776418291
100
AcDbArc
 50
100.593705719
 51
181.8644258977
  0
ARC
  5
D8
330
1F
100
AcDbEntity
  8
0
  6
Continuous
 62
     7
370
    15
100
AcDbCircle
 10
15.7525647065
 20
49.6797386442
 30
0.0
 40
0.4630662161981206
100
AcDbArc
 50
177.9649943272
 51
259.576961002
  0
ARC
  5
D9
330
1F
100
AcDbEntity
  8
0
  6
Continuous
 62
     7
370
    15
100
AcDbCircle
 10
15.7542166525
 20
49.7112988615
 30
0.0
 40
0.4646720677745491
100
AcDbArc
 50
100.5937711407
 51
181.8642735301
  0
LWPOLYLINE
  5
DA
330
1F
100
AcDbEntity
  8
0
  6
Continuous
 62
     7
370
    15
100
AcDbPolyline
 90
       25
 70
   128
 43
0.0
 10
15.5279204802
 20
30.1941814124
 10
15.5348078673
 20
30.250798785
 10
15.5549960074
 20
30.3035582822
 10
15.5871144631
 20
30.3488625055
 10
15.6289691262
 20
30.3836256239
 10
15.6777111765
 20
30.4054775315
 10
15.7300201189
 20
30.4129328054
 10
15.7823267146
 20
30.4054775315
 10
15.8310687649
 20
30.3836256239
 10
15.8729257747
 20
30.3488625055
 10
15.9050418837
 20
30.3035582822
 10
15.9252323704
 20
30.250798785
 10
15.9321174109
 20
30.1941814124
 10
15.9252323704
 20
30.1375663864
 10
15.9050418837
 20
30.0848068893
 10
15.8729257747
 20
30.0395026659
 10
15.8310687649
 20
30.0047395475
 10
15.7823267146
 20
29.9828852933
 10
15.7300201189
 20
29.9754323661
 10
15.6777111765
 20
29.9828852933
 10
15.6289691262
 20
30.0047395475
 10
15.5871144631
 20
30.0395026659
 10
15.5549960074
 20
30.0848068893
 10
15.5348078673
 20
30.1375663864
 10
15.5279204802
 20
30.1941814124
  0
LWPOLYLINE
  5
DB
330
1F
100
AcDbEntity
  8
0
  6
Continuous
 62
     7
370
    15
100
AcDbPolyline
 90
       25
 70
   128
 43
0.0
 10
15.5279204802
 20
49.6961821636
 10
15.5348078673
 20
49.6395655243
 10
15.5549960074
 20
49.5868072005
 10
15.5871144631
 20
49.5415025372
 10
15.6289691262
 20
49.5067391254
 10
15.6777111765
 20
49.4848858979
 10
15.7300201189
 20
49.4774322373
 10
15.7823267146
 20
49.4848858979
 10
15.8310687649
 20
49.5067391254
 10
15.8729257747
 20
49.5415025372
 10
15.9050418837
 20
49.5868072005
 10
15.9252323704
 20
49.6395655243
 10
15.9321174109
 20
49.6961821636
 10
15.9252323704
 20
49.7527988029
 10
15.9050418837
 20
49.8055571268
 10
15.8729257747
 20
49.8508617901
 10
15.8310687649
 20
49.8856252018
 10
15.7823267146
 20
49.9074784294
 10
15.7300201189
 20
49.9149322366
 10
15.6777111765
 20
49.9074784294
 10
15.6289691262
 20
49.8856252018
 10
15.5871144631
 20
49.8508617901
 10
15.5549960074
 20
49.8055571268
 10
15.5348078673
 20
49.7527988029
 10
15.5279204802
 20
49.6961821636
  0
ARC
  5
DC
330
1F
100
AcDbEntity
  8
0
  6
Continuous
 62
     7
370
    15
100
AcDbCircle
 10
15.9076016774
 20
49.6961821636
 30
0.0
 40
0.2246523312593173
100
AcDbArc
 50
116.1852426119
 51
243.8147573881
  0
ARC
  5
DD
330
1F
100
AcDbEntity
  8
0
  6
Continuous
 62
     7
370
    15
100
AcDbCircle
 10
15.9076000515
 20
30.1941825857
 30
0.0
 40
0.2246512189700799
100
AcDbArc
 50
116.1849200209
 51
243.8150799791
  0
ARC
  5
DE
330
1F
100
AcDbEntity
  8
0
  6
Continuous
 62
     7
370
    15
100
AcDbCircle
 10
8.8881364804
 20
30.1777372559
 30
0.0
 40
0.4630632495366305
100
AcDbArc
 50
177.9649024075
 51
259.5774174054
  0
ARC
  5
DF
330
1F
100
AcDbEntity
  8
0
  6
Continuous
 62
     7
370
    15
100
AcDbCircle
 10
8.8897901231
 20
30.2092996474
 30
0.0
 40
0.4646708240340935
100
AcDbArc
 50
100.5934902636
 51
181.8644681513
  0
ARC
  5
E0
330
1F
100
AcDbEntity
  8
0
  6
Continuous
 62
     7
370
    15
100
AcDbCircle
 10
8.8881387789
 20
49.6797382962
 30
0.0
 40
0.4630655363007212
100
AcDbArc
 50
177.9649482456
 51
259.5771802856
  0
ARC
  5
E1
330
1F
100
AcDbEntity
  8
0
  6
Continuous
 62
     7
370
    15
100
AcDbCircle
 10
8.8897907531
 20
49.7112991828
 30
0.0
 40
0.4646714141523687
100
AcDbArc
 50
100.5935556842
 51
181.8643157847
  0
LWPOLYLINE
  5
E2
330
1F
100
AcDbEntity
  8
0
  6
Continuous
 62
     7
370
    15
100
AcDbPolyline
 90
       25
 70
   128
 43
0.0
 10
8.6634952453
 20
49.6961821636
 10
8.6703826324
 20
49.6395655243
 10
8.6905719458
 20
49.5868072005
 10
8.7226892281
 20
49.5415025372
 10
8.7645450646
 20
49.5067391254
 10
8.8132871149
 20
49.4848858979
 10
8.865594884
 20
49.4774322373
 10
8.9179014797
 20
49.4848858979
 10
8.96664353
 20
49.5067391254
 10
9.0084993664
 20
49.5415025372
 10
9.0406166488
 20
49.5868072005
 10
9.0608071355
 20
49.6395655243
 10
9.0676933493
 20
49.6961821636
 10
9.0608071355
 20
49.7527988029
 10
9.0406166488
 20
49.8055571268
 10
9.0084993664
 20
49.8508617901
 10
8.96664353
 20
49.8856252018
 10
8.9179014797
 20
49.9074784294
 10
8.865594884
 20
49.9149322366
 10
8.8132871149
 20
49.9074784294
 10
8.7645450646
 20
49.8856252018
 10
8.7226892281
 20
49.8508617901
 10
8.6905719458
 20
49.8055571268
 10
8.6703826324
 20
49.7527988029
 10
8.6634952453
 20
49.6961821636
  0
LWPOLYLINE
  5
E3
330
1F
100
AcDbEntity
  8
0
  6
Continuous
 62
     7
370
    15
100
AcDbPolyline
 90
       25
 70
   128
 43
0.0
 10
8.6634952453
 20
30.1941814124
 10
8.6703826324
 20
30.250798785
 10
8.6905719458
 20
30.3035582822
 10
8.7226892281
 20
30.3488625055
 10
8.7645450646
 20
30.3836256239
 10
8.8132871149
 20
30.4054775315
 10
8.865594884
 20
30.4129328054
 10
8.9179014797
 20
30.4054775315
 10
8.96664353
 20
30.3836256239
 10
9.0084993664
 20
30.3488625055
 10
9.0406166488
 20
30.3035582822
 10
9.0608071355
 20
30.250798785
 10
9.0676933493
 20
30.1941814124
 10
9.0608071355
 20
30.1375663864
 10
9.0406166488
 20
30.0848068893
 10
9.0084993664
 20
30.0395026659
 10
8.96664353
 20
30.0047395475
 10
8.9179014797
 20
29.9828852933
 10
8.865594884
 20
29.9754323661
 10
8.8132871149
 20
29.9828852933
 10
8.7645450646
 20
30.0047395475
 10
8.7226892281
 20
30.0395026659
 10
8.6905719458
 20
30.0848068893
 10
8.6703826324
 20
30.1375663864
 10
8.6634952453
 20
30.1941814124
  0
ARC
  5
E4
330
1F
100
AcDbEntity
  8
0
  6
Continuous
 62
     7
370
    15
100
AcDbCircle
 10
9.0431752746
 20
30.1941825857
 30
0.0
 40
0.2246509032945252
100
AcDbArc
 50
116.1847562916
 51
243.8152437084
  0
ARC
  5
E5
330
1F
100
AcDbEntity
  8
0
  6
Continuous
 62
     7
370
    15
100
AcDbCircle
 10
9.0431769004
 20
49.6961821636
 30
0.0
 40
0.2246520155791471
100
AcDbArc
 50
116.1850788834
 51
243.8149211166
  0
LINE
  5
E6
330
1F
100
AcDbEntity
  8
0
  6
Continuous
 62
     7
370
    15
100
AcDbLine
 10
17.7898627767
 20
29.178182696
 30
0.0
 11
17.7898627767
 21
29.1779292589
 31
0.0
  0
LINE
  5
E7
330
1F
100
AcDbEntity
  8
0
  6
Continuous
 62
     7
370
    15
100
AcDbLine
 10
18.7898644513
 20
29.178182696
 30
0.0
 11
18.7898644513
 21
29.1779292589
 31
0.0
  0
LINE
  5
E8
330
1F
100
AcDbEntity
  8
0
  6
Continuous
 62
     7
370
    15
100
AcDbLine
 10
19.2431296151
 20
51.4419301966
 30
0.0
 11
19.2431296151
 21
50.7119302296
 31
0.0
  0
LINE
  5
E9
330
1F
100
AcDbEntity
  8
0
  6
Continuous
 62
     7
370
    15
100
AcDbLine
 10
19.5473643939
 20
51.4419301966
 30
0.0
 11
19.5473643939
 21
50.7119302296
 31
0.0
  0
LINE
  5
EA
330
1F
100
AcDbEntity
  8
0
  6
Continuous
 62
     7
370
    15
100
AcDbLine
 10
19.5473643939
 20
50.7119302296
 30
0.0
 11
19.545482389
 21
50.7119302296
 31
0.0
  0
LINE
  5
EB
330
1F
100
AcDbEntity
  8
0
  6
Continuous
 62
     7
370
    15
100
AcDbLine
 10
19.2660633235
 20
50.7119302296
 30
0.0
 11
19.2431296151
 21
50.7119302296
 31
0.0
  0
LINE
  5
EC
330
1F
100
AcDbEntity
  8
0
  6
Continuous
 62
     7
370
    15
100
AcDbLine
 10
19.5473643939
 20
51.4419301966
 30
0.0
 11
19.2431296151
 21
51.4419301966
 31
0.0
  0
LINE
  5
ED
330
1F
100
AcDbEntity
  8
0
  6
Continuous
 62
     7
370
    15
100
AcDbLine
 10
6.9423641946
 20
51.4419301966
 30
0.0
 11
6.9423641946
 21
50.7119302296
 31
0.0
  0
LINE
  5
EE
330
1F
100
AcDbEntity
  8
0
  6
Continuous
 62
     7
370
    15
100
AcDbLine
 10
19.2431296151
 20
50.7119302296
 30
0.0
 11
6.9423641946
 21
50.7119302296
 31
0.0
  0
LINE
  5
EF
330
1F
100
AcDbEntity
  8
0
  6
Continuous
 62
     7
370
    15
100
AcDbLine
 10
19.2431296151
 20
51.4419301966
 30
0.0
 11
6.9423641946
 21
51.4419301966
 31
0.0
  0
LINE
  5
F0
330
1F
100
AcDbEntity
  8
0
  6
Continuous
 62
     7
370
    15
100
AcDbLine
 10
19.5473643939
 20
28.4479295853
 30
0.0
 11
19.5473643939
 21
29.1779292589
 31
0.0
  0
LINE
  5
F1
330
1F
100
AcDbEntity
  8
0
  6
Continuous
 62
     7
370
    15
100
AcDbLine
 10
19.2431296151
 20
28.4479295853
 30
0.0
 11
19.5473643939
 21
28.4479295853
 31
0.0
  0
LINE
  5
F2
330
1F
100
AcDbEntity
  8
0
  6
Continuous
 62
     7
370
    15
100
AcDbLine
 10
19.2431296151
 20
28.4479295853
 30
0.0
 11
19.2431296151
 21
29.1779292589
 31
0.0
  0
LINE
  5
F3
330
1F
100
AcDbEntity
  8
0
  6
Continuous
 62
     7
370
    15
100
AcDbLine
 10
19.2431296151
 20
29.1779292589
 30
0.0
 11
19.5473643939
 21
29.1779292589
 31
0.0
  0
LINE
  5
F4
330
1F
100
AcDbEntity
  8
0
  6
Continuous
 62
     7
370
    15
100
AcDbLine
 10
6.9423641946
 20
28.4479295853
 30
0.0
 11
6.9423641946
 21
29.1779292589
 31
0.0
  0
LINE
  5
F5
330
1F
100
AcDbEntity
  8
0
  6
Continuous
 62
     7
370
    15
100
AcDbLine
 10
6.9423641946
 20
28.4479295853
 30
0.0
 11
19.2431296151
 21
28.4479295853
 31
0.0
  0
LINE
  5
F6
330
1F
100
AcDbEntity
  8
0
  6
Continuous
 62
     7
370
    15
100
AcDbLine
 10
6.9423641946
 20
29.1779292589
 30
0.0
 11
19.2431296151
 21
29.1779292589
 31
0.0
  0
LINE
  5
F7
330
1F
100
AcDbEntity
  8
0
  6
Continuous
 62
     7
370
    15
100
AcDbLine
 10
31.8040371403
 20
58.9894296657
 30
0.0
 11
31.8040125006
 21
58.9893709997
 31
0.0
  0
LINE
  5
F8
330
1F
100
AcDbEntity
  8
0
  6
Continuous
 62
     7
370
    15
100
AcDbLine
 10
31.8040125006
 20
58.9893709997
 30
0.0
 11
31.129580665
 21
59.2687290526
 31
0.0
  0
LINE
  5
F9
330
1F
100
AcDbEntity
  8
0
  6
Continuous
 62
     7
370
    15
100
AcDbLine
 10
31.1296053048
 20
59.2687900652
 30
0.0
 11
31.129580665
 21
59.2687290526
 31
0.0
  0
LINE
  5
FA
330
1F
100
AcDbEntity
  8
0
  6
Continuous
 62
     7
370
    15
100
AcDbLine
 10
48.0211849985
 20
59.2687290526
 30
0.0
 11
48.0211603587
 21
59.2687900652
 31
0.0
  0
LINE
  5
FB
330
1F
100
AcDbEntity
  8
0
  6
Continuous
 62
     7
370
    15
100
AcDbLine
 10
48.0211849985
 20
59.2687290526
 30
0.0
 11
47.3467531629
 21
58.9893709997
 31
0.0
  0
LINE
  5
FC
330
1F
100
AcDbEntity
  8
0
  6
Continuous
 62
     7
370
    15
100
AcDbLine
 10
47.3467531629
 20
58.9893709997
 30
0.0
 11
47.3467285232
 21
58.9894296657
 31
0.0
  0
LINE
  5
FD
330
1F
100
AcDbEntity
  8
0
  6
Continuous
 62
     7
370
    15
100
AcDbLine
 10
31.074238691
 20
59.2917237736
 30
0.0
 11
36.1693827648
 21
71.5924891941
 31
0.0
  0
LINE
  5
FE
330
1F
100
AcDbEntity
  8
0
  6
Continuous
 62
     7
370
    15
100
AcDbLine
 10
36.1693827648
 20
71.5924891941
 30
0.0
 11
42.9813828987
 21
71.5924891941
 31
0.0
  0
LINE
  5
FF
330
1F
100
AcDbEntity
  8
0
  6
Continuous
 62
     7
370
    15
100
AcDbLine
 10
47.3420428706
 20
58.9874889948
 30
0.0
 11
31.8087227929
 21
58.9874889948
 31
0.0
  0
LINE
  5
100
330
1F
100
AcDbEntity
  8
0
  6
Continuous
 62
     7
370
    15
100
AcDbLine
 10
31.8087227929
 20
58.9874889948
 30
0.0
 11
31.074238691
 21
59.2917237736
 31
0.0
  0
CIRCLE
  5
101
330
1F
100
AcDbEntity
  8
0
  6
Continuous
 62
     7
370
    15
100
AcDbCircle
 10
44.8927635617
 20
62.2591683311
 30
0.0
 40
0.4765000000000015
  0
CIRCLE
  5
102
330
1F
100
AcDbEntity
  8
0
  6
Continuous
 62
     7
370
    15
100
AcDbCircle
 10
42.0494256593
 20
69.1235932576
 30
0.0
 40
0.4765000000000015
  0
CIRCLE
  5
103
330
1F
100
AcDbEntity
  8
0
  6
Continuous
 62
     7
370
    15
100
AcDbCircle
 10
37.1013400042
 20
69.1235932576
 30
0.0
 40
0.4765000000000015
  0
CIRCLE
  5
104
330
1F
100
AcDbEntity
  8
0
  6
Continuous
 62
     7
370
    15
100
AcDbCircle
 10
34.2580021017
 20
62.2591683311
 30
0.0
 40
0.4764999999999944
  0
LINE
  5
105
330
1F
100
AcDbEntity
  8
0
  6
Continuous
 62
     7
370
    15
100
AcDbLine
 10
42.9813828987
 20
71.5924891941
 30
0.0
 11
48.0765269725
 21
59.2917237736
 31
0.0
  0
LINE
  5
106
330
1F
100
AcDbEntity
  8
0
  6
Continuous
 62
     7
370
    15
100
AcDbLine
 10
48.0765269725
 20
59.2917237736
 30
0.0
 11
47.3420428706
 21
58.9874889948
 31
0.0
  0
CIRCLE
  5
107
330
1F
100
AcDbEntity
  8
0
  6
Continuous
 62
     7
370
    15
100
AcDbCircle
 10
34.2580021017
 20
62.2591683311
 30
0.0
 40
0.2187499999999929
  0
CIRCLE
  5
108
330
1F
100
AcDbEntity
  8
0
  6
Continuous
 62
     7
370
    15
100
AcDbCircle
 10
44.8927635617
 20
62.2591683311
 30
0.0
 40
0.2187500000000071
  0
CIRCLE
  5
109
330
1F
100
AcDbEntity
  8
0
  6
Continuous
 62
     7
370
    15
100
AcDbCircle
 10
37.1013400042
 20
69.1235932576
 30
0.0
 40
0.21875
  0
CIRCLE
  5
10A
330
1F
100
AcDbEntity
  8
0
  6
Continuous
 62
     7
370
    15
100
AcDbCircle
 10
42.0494256593
 20
69.1235932576
 30
0.0
 40
0.2187499999999929
  0
CIRCLE
  5
10B
330
1F
100
AcDbEntity
  8
0
  6
Continuous
 62
     7
370
    15
100
AcDbCircle
 10
55.3010761799
 20
51.3273898362
 30
0.0
 40
0.0939999999999965
  0
CIRCLE
  5
10C
330
1F
100
AcDbEntity
  8
0
  6
Continuous
 62
     7
370
    15
100
AcDbCircle
 10
55.3010761799
 20
30.5333898362
 30
0.0
 40
0.1024999999999991
  0
CIRCLE
  5
10D
330
1F
100
AcDbEntity
  8
0
  6
Continuous
 62
     7
370
    15
100
AcDbCircle
 10
55.3010761799
 20
51.3273898362
 30
0.0
 40
0.1024999999999991
  0
ARC
  5
10E
330
1F
100
AcDbEntity
  8
0
  6
Continuous
 62
     7
370
    15
100
AcDbCircle
 10
54.7635761799
 20
30.2858898362
 30
0.0
 40
0.0625
100
AcDbArc
 50
180.0
 51
270.0
  0
LINE
  5
10F
330
1F
100
AcDbEntity
  8
0
  6
Continuous
 62
     7
370
    15
100
AcDbLine
 10
54.7010759099
 20
51.5748898577
 30
0.0
 11
54.7010759099
 21
30.2858905234
 31
0.0
  0
ARC
  5
110
330
1F
100
AcDbEntity
  8
0
  6
Continuous
 62
     7
370
    15
100
AcDbCircle
 10
54.7635761799
 20
51.5748898362
 30
0.0
 40
0.0625000000000071
100
AcDbArc
 50
90.0
 51
180.0
  0
LINE
  5
111
330
1F
100
AcDbEntity
  8
0
  6
Continuous
 62
     7
370
    15
100
AcDbLine
 10
69.8825760519
 20
51.6373898157
 30
0.0
 11
54.7635763079
 21
51.6373898157
 31
0.0
  0
ARC
  5
112
330
1F
100
AcDbEntity
  8
0
  6
Continuous
 62
     7
370
    15
100
AcDbCircle
 10
69.8825761799
 20
51.5748898362
 30
0.0
 40
0.0625000000000142
100
AcDbArc
 50
0.0
 51
90.0
  0
LINE
  5
113
330
1F
100
AcDbEntity
  8
0
  6
Continuous
 62
     7
370
    15
100
AcDbLine
 10
69.9450764499
 20
51.5748898577
 30
0.0
 11
69.9450764499
 21
30.2858905234
 31
0.0
  0
ARC
  5
114
330
1F
100
AcDbEntity
  8
0
  6
Continuous
 62
     7
370
    15
100
AcDbCircle
 10
69.8825761799
 20
30.2858898362
 30
0.0
 40
0.0625000000000142
100
AcDbArc
 50
270.0
 51
0.0
  0
LINE
  5
115
330
1F
100
AcDbEntity
  8
0
  6
Continuous
 62
     7
370
    15
100
AcDbLine
 10
69.8825760519
 20
30.2233901254
 30
0.0
 11
54.7635763079
 21
30.2233901254
 31
0.0
  0
CIRCLE
  5
116
330
1F
100
AcDbEntity
  8
0
  6
Continuous
 62
     7
370
    15
100
AcDbCircle
 10
55.3010761799
 20
40.9303898362
 30
0.0
 40
0.1024999999999991
  0
CIRCLE
  5
117
330
1F
100
AcDbEntity
  8
0
  6
Continuous
 62
     7
370
    15
100
AcDbCircle
 10
69.3450761799
 20
51.3273898362
 30
0.0
 40
0.1025000000000063
  0
CIRCLE
  5
118
330
1F
100
AcDbEntity
  8
0
  6
Continuous
 62
     7
370
    15
100
AcDbCircle
 10
69.3450761799
 20
40.9303898362
 30
0.0
 40
0.102499999999992
  0
CIRCLE
  5
119
330
1F
100
AcDbEntity
  8
0
  6
Continuous
 62
     7
370
    15
100
AcDbCircle
 10
69.3450761799
 20
30.5333898362
 30
0.0
 40
0.102499999999992
  0
CIRCLE
  5
11A
330
1F
100
AcDbEntity
  8
0
  6
Continuous
 62
     7
370
    15
100
AcDbCircle
 10
62.3230761799
 20
51.3273898362
 30
0.0
 40
0.1024999999999991
  0
CIRCLE
  5
11B
330
1F
100
AcDbEntity
  8
0
  6
Continuous
 62
     7
370
    15
100
AcDbCircle
 10
62.3230761799
 20
30.5333898362
 30
0.0
 40
0.1024999999999991
  0
LINE
  5
11C
330
1F
100
AcDbEntity
  8
0
  6
Continuous
 62
     7
370
    15
100
AcDbLine
 10
70.094446511
 20
30.1636423356
 30
0.0
 11
70.094446511
 21
51.6976418397
 31
0.0
  0
LINE
  5
11D
330
1F
100
AcDbEntity
  8
0
  6
Continuous
 62
     7
370
    15
100
AcDbLine
 10
70.7688783466
 20
51.6976418397
 30
0.0
 11
70.094446511
 21
51.6976418397
 31
0.0
  0
LINE
  5
11E
330
1F
100
AcDbEntity
  8
0
  6
Continuous
 62
     7
370
    15
100
AcDbLine
 10
70.7688783466
 20
30.1636423356
 30
0.0
 11
70.7688783466
 21
51.6976418397
 31
0.0
  0
LINE
  5
11F
330
1F
100
AcDbEntity
  8
0
  6
Continuous
 62
     7
370
    15
100
AcDbLine
 10
70.094446511
 20
30.1636423356
 30
0.0
 11
70.7688783466
 21
30.1636423356
 31
0.0
  0
LINE
  5
120
330
1F
100
AcDbEntity
  8
0
  6
Continuous
 62
     7
370
    15
100
AcDbLine
 10
69.8066687155
 20
30.1636423356
 30
0.0
 11
69.8066687155
 21
30.2233901254
 31
0.0
  0
LINE
  5
121
330
1F
100
AcDbEntity
  8
0
  6
Continuous
 62
     7
370
    15
100
AcDbLine
 10
69.8066687155
 20
51.6373898157
 30
0.0
 11
69.8066687155
 21
51.6973898693
 31
0.0
  0
LINE
  5
122
330
1F
100
AcDbEntity
  8
0
  6
Continuous
 62
     7
370
    15
100
AcDbLine
 10
70.094446511
 20
51.6976418397
 30
0.0
 11
70.0944218713
 21
51.6976418397
 31
0.0
  0
LINE
  5
123
330
1F
100
AcDbEntity
  8
0
  6
Continuous
 62
     7
370
    15
100
AcDbLine
 10
69.8066687155
 20
30.1636423356
 30
0.0
 11
70.094446511
 21
30.1636423356
 31
0.0
  0
LINE
  5
124
330
1F
100
AcDbEntity
  8
0
  6
Continuous
 62
     7
370
    15
100
AcDbLine
 10
54.5517304885
 20
51.6976418397
 30
0.0
 11
54.5517058488
 21
51.6976418397
 31
0.0
  0
LINE
  5
125
330
1F
100
AcDbEntity
  8
0
  6
Continuous
 62
     7
370
    15
100
AcDbLine
 10
54.8394836443
 20
51.6973898693
 30
0.0
 11
54.8394836443
 21
51.6373898157
 31
0.0
  0
LINE
  5
126
330
1F
100
AcDbEntity
  8
0
  6
Continuous
 62
     7
370
    15
100
AcDbLine
 10
54.8394836443
 20
30.2233901254
 30
0.0
 11
54.8394836443
 21
30.1636423356
 31
0.0
  0
LINE
  5
127
330
1F
100
AcDbEntity
  8
0
  6
Continuous
 62
     7
370
    15
100
AcDbLine
 10
54.5517058488
 20
30.1636423356
 30
0.0
 11
54.8394836443
 21
30.1636423356
 31
0.0
  0
LINE
  5
128
330
1F
100
AcDbEntity
  8
0
  6
Continuous
 62
     7
370
    15
100
AcDbLine
 10
54.5517058488
 20
51.6976418397
 30
0.0
 11
54.5517058488
 21
30.1636423356
 31
0.0
  0
LINE
  5
129
330
1F
100
AcDbEntity
  8
0
  6
Continuous
 62
     7
370
    15
100
AcDbLine
 10
53.8772740132
 20
30.1636423356
 30
0.0
 11
54.5517058488
 21
30.1636423356
 31
0.0
  0
LINE
  5
12A
330
1F
100
AcDbEntity
  8
0
  6
Continuous
 62
     7
370
    15
100
AcDbLine
 10
53.8772740132
 20
51.6976418397
 30
0.0
 11
53.8772740132
 21
30.1636423356
 31
0.0
  0
LINE
  5
12B
330
1F
100
AcDbEntity
  8
0
  6
Continuous
 62
     7
370
    15
100
AcDbLine
 10
54.5517058488
 20
51.6976418397
 30
0.0
 11
53.8772740132
 21
51.6976418397
 31
0.0
  0
LINE
  5
12C
330
1F
100
AcDbEntity
  8
0
  6
Continuous
 62
     7
370
    15
100
AcDbLine
 10
54.7120763695
 20
30.1636423356
 30
0.0
 11
54.7120763695
 21
30.1633888985
 31
0.0
  0
LINE
  5
12D
330
1F
100
AcDbEntity
  8
0
  6
Continuous
 62
     7
370
    15
100
AcDbLine
 10
69.9340759903
 20
30.1636423356
 30
0.0
 11
69.9340759903
 21
30.1633888985
 31
0.0
  0
LINE
  5
12E
330
1F
100
AcDbEntity
  8
0
  6
Continuous
 62
     7
370
    15
100
AcDbLine
 10
54.556416141
 20
52.4273898362
 30
0.0
 11
54.556416141
 21
51.6973898693
 31
0.0
  0
LINE
  5
12F
330
1F
100
AcDbEntity
  8
0
  6
Continuous
 62
     7
370
    15
100
AcDbLine
 10
70.0897362188
 20
52.4273898362
 30
0.0
 11
54.556416141
 21
52.4273898362
 31
0.0
  0
LINE
  5
130
330
1F
100
AcDbEntity
  8
0
  6
Continuous
 62
     7
370
    15
100
AcDbLine
 10
70.0897362188
 20
52.4273898362
 30
0.0
 11
70.0897362188
 21
51.6973898693
 31
0.0
  0
LINE
  5
131
330
1F
100
AcDbEntity
  8
0
  6
Continuous
 62
     7
370
    15
100
AcDbLine
 10
70.0897362188
 20
51.6973898693
 30
0.0
 11
54.556416141
 21
51.6973898693
 31
0.0
  0
LINE
  5
132
330
1F
100
AcDbEntity
  8
0
  6
Continuous
 62
     7
370
    15
100
AcDbLine
 10
53.8219320392
 20
52.4273898362
 30
0.0
 11
53.8219320392
 21
51.6973898693
 31
0.0
  0
LINE
  5
133
330
1F
100
AcDbEntity
  8
0
  6
Continuous
 62
     7
370
    15
100
AcDbLine
 10
54.556416141
 20
52.4273898362
 30
0.0
 11
53.8219320392
 21
52.4273898362
 31
0.0
  0
LINE
  5
134
330
1F
100
AcDbEntity
  8
0
  6
Continuous
 62
     7
370
    15
100
AcDbLine
 10
54.556416141
 20
51.6973898693
 30
0.0
 11
54.5517304885
 21
51.6973898693
 31
0.0
  0
LINE
  5
135
330
1F
100
AcDbEntity
  8
0
  6
Continuous
 62
     7
370
    15
100
AcDbLine
 10
53.8772740132
 20
51.6973898693
 30
0.0
 11
53.8219320392
 21
51.6973898693
 31
0.0
  0
LINE
  5
136
330
1F
100
AcDbEntity
  8
0
  6
Continuous
 62
     7
370
    15
100
AcDbLine
 10
70.8242203206
 20
52.4273898362
 30
0.0
 11
70.8242203206
 21
51.6973898693
 31
0.0
  0
LINE
  5
137
330
1F
100
AcDbEntity
  8
0
  6
Continuous
 62
     7
370
    15
100
AcDbLine
 10
70.8242203206
 20
51.6973898693
 30
0.0
 11
70.7688783466
 21
51.6973898693
 31
0.0
  0
LINE
  5
138
330
1F
100
AcDbEntity
  8
0
  6
Continuous
 62
     7
370
    15
100
AcDbLine
 10
70.0944218713
 20
51.6973898693
 30
0.0
 11
70.0897362188
 21
51.6973898693
 31
0.0
  0
LINE
  5
139
330
1F
100
AcDbEntity
  8
0
  6
Continuous
 62
     7
370
    15
100
AcDbLine
 10
70.8242203206
 20
52.4273898362
 30
0.0
 11
70.0897362188
 21
52.4273898362
 31
0.0
  0
LINE
  5
13A
330
1F
100
AcDbEntity
  8
0
  6
Continuous
 62
     7
370
    15
100
AcDbLine
 10
70.0897362188
 20
29.4333892249
 30
0.0
 11
70.0897362188
 21
30.1633888985
 31
0.0
  0
LINE
  5
13B
330
1F
100
AcDbEntity
  8
0
  6
Continuous
 62
     7
370
    15
100
AcDbLine
 10
54.556416141
 20
29.4333892249
 30
0.0
 11
70.0897362188
 21
29.4333892249
 31
0.0
  0
LINE
  5
13C
330
1F
100
AcDbEntity
  8
0
  6
Continuous
 62
     7
370
    15
100
AcDbLine
 10
54.556416141
 20
29.4333892249
 30
0.0
 11
54.556416141
 21
30.1633888985
 31
0.0
  0
LINE
  5
13D
330
1F
100
AcDbEntity
  8
0
  6
Continuous
 62
     7
370
    15
100
AcDbLine
 10
54.556416141
 20
30.1633888985
 30
0.0
 11
70.0897362188
 21
30.1633888985
 31
0.0
  0
LINE
  5
13E
330
1F
100
AcDbEntity
  8
0
  6
Continuous
 62
     7
370
    15
100
AcDbLine
 10
70.8242203206
 20
29.4333892249
 30
0.0
 11
70.8242203206
 21
30.1633888985
 31
0.0
  0
LINE
  5
13F
330
1F
100
AcDbEntity
  8
0
  6
Continuous
 62
     7
370
    15
100
AcDbLine
 10
70.0897362188
 20
29.4333892249
 30
0.0
 11
70.8242203206
 21
29.4333892249
 31
0.0
  0
LINE
  5
140
330
1F
100
AcDbEntity
  8
0
  6
Continuous
 62
     7
370
    15
100
AcDbLine
 10
70.0897362188
 20
30.1633888985
 30
0.0
 11
70.8242203206
 21
30.1633888985
 31
0.0
  0
LINE
  5
141
330
1F
100
AcDbEntity
  8
0
  6
Continuous
 62
     7
370
    15
100
AcDbLine
 10
53.8219320392
 20
29.4333892249
 30
0.0
 11
53.8219320392
 21
30.1633888985
 31
0.0
  0
LINE
  5
142
330
1F
100
AcDbEntity
  8
0
  6
Continuous
 62
     7
370
    15
100
AcDbLine
 10
53.8219320392
 20
29.4333892249
 30
0.0
 11
54.556416141
 21
29.4333892249
 31
0.0
  0
LINE
  5
143
330
1F
100
AcDbEntity
  8
0
  6
Continuous
 62
     7
370
    15
100
AcDbLine
 10
53.8219320392
 20
30.1633888985
 30
0.0
 11
54.556416141
 21
30.1633888985
 31
0.0
  0
ENDSEC
  0
SECTION
  2
OBJECTS
  0
DICTIONARY
  5
C
330
0
100
AcDbDictionary
281
     1
  3
ACAD_DETAILVIEWSTYLE
350
148
  3
ACAD_GROUP
350
D
  3
ACAD_LAYOUT
350
1A
  3
ACAD_MATERIAL
350
43
  3
ACAD_MLEADERSTYLE
350
147
  3
ACAD_MLINESTYLE
350
17
  3
ACAD_PLOTSETTINGS
350
19
  3
ACAD_PLOTSTYLENAME
350
E
  3
ACAD_SCALELIST
350
47
  3
ACAD_SECTIONVIEWSTYLE
350
149
  3
ACAD_TABLESTYLE
350
146
  3
ACAD_VISUALSTYLE
350
2A
  3
AcDbVariableDictionary
350
144
  0
SUN
  5
69
330
29
100
AcDbSun
 90
        1
290
     0
 63
     7
421
 16777215
 40
1.0
291
     1
 91
  2455826
 92
 54000000
292
     0
 70
     2
 71
   256
280
     1
  0
DICTIONARY
  5
148
102
{ACAD_REACTORS
330
C
102
}
330
C
100
AcDbDictionary
281
     1
  0
DICTIONARY
  5
D
102
{ACAD_REACTORS
330
C
102
}
330
C
100
AcDbDictionary
281
     1
  0
DICTIONARY
  5
1A
102
{ACAD_REACTORS
330
C
102
}
330
C
100
AcDbDictionary
281
     1
  3
Layout1
350
1E
  3
Layout2
350
26
  3
Model
350
22
  0
DICTIONARY
  5
43
102
{ACAD_REACTORS
330
C
102
}
330
C
100
AcDbDictionary
281
     1
  3
ByBlock
350
45
  3
ByLayer
350
44
  3
Global
350
46
  0
DICTIONARY
  5
147
102
{ACAD_REACTORS
330
C
102
}
330
C
100
AcDbDictionary
281
     1
  0
DICTIONARY
  5
17
102
{ACAD_REACTORS
330
C
102
}
330
C
100
AcDbDictionary
281
     1
  3
Standard
350
18
  0
DICTIONARY
  5
19
102
{ACAD_REACTORS
330
C
102
}
330
C
100
AcDbDictionary
281
     1
  0
ACDBDICTIONARYWDFLT
  5
E
102
{ACAD_REACTORS
330
C
102
}
330
C
100
AcDbDictionary
281
     1
  3
Normal
350
F
100
AcDbDictionaryWithDefault
340
F
  0
DICTIONARY
  5
47
102
{ACAD_REACTORS
330
C
102
}
330
C
100
AcDbDictionary
281
     1
  3
A0
350
48
  3
A1
350
49
  3
A2
350
4A
  3
A3
350
4B
  3
A4
350
4C
  3
A5
350
4D
  3
A6
350
4E
  3
A7
350
4F
  3
A8
350
50
  3
A9
350
51
  3
B0
350
52
  3
B1
350
53
  3
B2
350
54
  3
B3
350
55
  3
B4
350
56
  3
B5
350
57
  3
B6
350
58
  3
B7
350
59
  3
B8
350
5A
  3
B9
350
5B
  3
C0
350
5C
  3
C1
350
5D
  3
C2
350
5E
  3
C3
350
5F
  3
C4
350
60
  3
C5
350
61
  3
C6
350
62
  3
C7
350
63
  3
C8
350
64
  3
C9
350
65
  3
D0
350
66
  3
D1
350
67
  3
D2
350
68
  0
DICTIONARY
  5
149
102
{ACAD_REACTORS
330
C
102
}
330
C
100
AcDbDictionary
281
     1
  0
DICTIONARY
  5
146
102
{ACAD_REACTORS
330
C
102
}
330
C
100
AcDbDictionary
281
     1
  0
DICTIONARY
  5
2A
102
{ACAD_REACTORS
330
C
102
}
330
C
100
AcDbDictionary
281
     1
  3
2dWireframe
350
2F
  3
Basic
350
32
  3
Brighten
350
36
  3
ColorChange
350
3A
  3
Conceptual
350
34
  3
Dim
350
35
  3
EdgeColorOff
350
3D
  3
Facepattern
350
39
  3
Flat
350
2B
  3
FlatWithEdges
350
2C
  3
Gouraud
350
2D
  3
GouraudWithEdges
350
2E
  3
Hidden
350
31
  3
JitterOff
350
3B
  3
Linepattern
350
38
  3
OverhangOff
350
3C
  3
Realistic
350
33
  3
Shaded
350
42
  3
Shaded with edges
350
41
  3
Shades of Gray
350
3E
  3
Sketchy
350
3F
  3
Thicken
350
37
  3
Wireframe
350
30
  3
X-Ray
350
40
  0
DICTIONARY
  5
144
102
{ACAD_REACTORS
330
C
102
}
330
C
100
AcDbDictionary
281
     1
  3
CANNOSCALE
350
145
  0
LAYOUT
  5
1E
102
{ACAD_REACTORS
330
1A
102
}
330
1A
100
AcDbPlotSettings
  1

  2
none_device
  4

  6

 40
0.0
 41
0.0
 42
0.0
 43
0.0
 44
0.0
 45
0.0
 46
0.0
 47
0.0
 48
0.0
 49
0.0
140
0.0
141
0.0
142
1.0
143
1.0
 70
   688
 72
     0
 73
     0
 74
     5
  7

 75
    16
 76
     0
 77
     2
 78
   300
147
1.0
148
0.0
149
0.0
100
AcDbLayout
  1
Layout1
 70
     1
 71
     1
 10
0.0
 20
0.0
 11
12.0
 21
9.0
 12
0.0
 22
0.0
 32
0.0
 14
1.0000000000E+20
 24
1.0000000000E+20
 34
1.0000000000E+20
 15
-1.0000000000E+20
 25
-1.0000000000E+20
 35
-1.0000000000E+20
146
0.0
 13
0.0
 23
0.0
 33
0.0
 16
1.0
 26
0.0
 36
0.0
 17
0.0
 27
1.0
 37
0.0
 76
     0
330
1B
  0
LAYOUT
  5
26
102
{ACAD_REACTORS
330
1A
102
}
330
1A
100
AcDbPlotSettings
  1

  2
none_device
  4

  6

 40
0.0
 41
0.0
 42
0.0
 43
0.0
 44
0.0
 45
0.0
 46
0.0
 47
0.0
 48
0.0
 49
0.0
140
0.0
141
0.0
142
1.0
143
1.0
 70
   688
 72
     0
 73
     0
 74
     5
  7

 75
    16
 76
     0
 77
     2
 78
   300
147
1.0
148
0.0
149
0.0
100
AcDbLayout
  1
Layout2
 70
     1
 71
     2
 10
0.0
 20
0.0
 11
0.0
 21
0.0
 12
0.0
 22
0.0
 32
0.0
 14
0.0
 24
0.0
 34
0.0
 15
0.0
 25
0.0
 35
0.0
146
0.0
 13
0.0
 23
0.0
 33
0.0
 16
1.0
 26
0.0
 36
0.0
 17
0.0
 27
1.0
 37
0.0
 76
     0
330
23
  0
LAYOUT
  5
22
102
{ACAD_REACTORS
330
1A
102
}
330
1A
100
AcDbPlotSettings
  1

  2
none_device
  4
Letter_(8.50_x_11.00_Inches)
  6

 40
6.35
 41
6.35
 42
6.35000508
 43
6.35000508
 44
215.9
 45
279.4
 46
0.0
 47
0.0
 48
0.0
 49
0.0
140
0.0
141
0.0
142
1.0
143
1.0
 70
  1712
 72
     0
 73
     0
 74
     0
  7

 75
     0
 76
     0
 77
     2
 78
   300
147
1.0
148
0.0
149
0.0
100
AcDbLayout
  1
Model
 70
     1
 71
     0
 10
0.0
 20
0.0
 11
78.7401574803
 21
78.7401574803
 12
0.0
 22
0.0
 32
0.0
 14
0.0
 24
0.0
 34
0.0
 15
78.7401574803
 25
78.7401574803
 35
0.0
146
0.0
 13
0.0
 23
0.0
 33
0.0
 16
1.0
 26
0.0
 36
0.0
 17
0.0
 27
1.0
 37
0.0
 76
     0
330
1F
331
29
  0
MATERIAL
  5
45
102
{ACAD_REACTORS
330
43
102
}
330
43
100
AcDbMaterial
  1
ByBlock
 72
     1
 94
      127
  0
MATERIAL
  5
44
102
{ACAD_REACTORS
330
43
102
}
330
43
100
AcDbMaterial
  1
ByLayer
 72
     1
 94
      127
  0
MATERIAL
  5
46
102
{ACAD_REACTORS
330
43
102
}
330
43
100
AcDbMaterial
  1
Global
 72
     1
 94
      127
  0
MLINESTYLE
  5
18
102
{ACAD_REACTORS
330
17
102
}
330
17
100
AcDbMlineStyle
  2
Standard
 70
     0
  3

 62
   256
 51
90.0
 52
90.0
 71
     2
 49
0.5
 62
   256
  6
BYLAYER
 49
-0.5
 62
   256
  6
BYLAYER
  0
ACDBPLACEHOLDER
  5
F
102
{ACAD_REACTORS
330
E
102
}
330
E
  0
SCALE
  5
48
102
{ACAD_REACTORS
330
47
102
}
330
47
100
AcDbScale
 70
     0
300
1:1
140
1.0
141
1.0
290
     1
  0
SCALE
  5
49
102
{ACAD_REACTORS
330
47
102
}
330
47
100
AcDbScale
 70
     0
300
1:2
140
1.0
141
2.0
290
     0
  0
SCALE
  5
4A
102
{ACAD_REACTORS
330
47
102
}
330
47
100
AcDbScale
 70
     0
300
1:4
140
1.0
141
4.0
290
     0
  0
SCALE
  5
4B
102
{ACAD_REACTORS
330
47
102
}
330
47
100
AcDbScale
 70
     0
300
1:5
140
1.0
141
5.0
290
     0
  0
SCALE
  5
4C
102
{ACAD_REACTORS
330
47
102
}
330
47
100
AcDbScale
 70
     0
300
1:8
140
1.0
141
8.0
290
     0
  0
SCALE
  5
4D
102
{ACAD_REACTORS
330
47
102
}
330
47
100
AcDbScale
 70
     0
300
1:10
140
1.0
141
10.0
290
     0
  0
SCALE
  5
4E
102
{ACAD_REACTORS
330
47
102
}
330
47
100
AcDbScale
 70
     0
300
1:16
140
1.0
141
16.0
290
     0
  0
SCALE
  5
4F
102
{ACAD_REACTORS
330
47
102
}
330
47
100
AcDbScale
 70
     0
300
1:20
140
1.0
141
20.0
290
     0
  0
SCALE
  5
50
102
{ACAD_REACTORS
330
47
102
}
330
47
100
AcDbScale
 70
     0
300
1:30
140
1.0
141
30.0
290
     0
  0
SCALE
  5
51
102
{ACAD_REACTORS
330
47
102
}
330
47
100
AcDbScale
 70
     0
300
1:40
140
1.0
141
40.0
290
     0
  0
SCALE
  5
52
102
{ACAD_REACTORS
330
47
102
}
330
47
100
AcDbScale
 70
     0
300
1:50
140
1.0
141
50.0
290
     0
  0
SCALE
  5
53
102
{ACAD_REACTORS
330
47
102
}
330
47
100
AcDbScale
 70
     0
300
1:100
140
1.0
141
100.0
290
     0
  0
SCALE
  5
54
102
{ACAD_REACTORS
330
47
102
}
330
47
100
AcDbScale
 70
     0
300
2:1
140
2.0
141
1.0
290
     0
  0
SCALE
  5
55
102
{ACAD_REACTORS
330
47
102
}
330
47
100
AcDbScale
 70
     0
300
4:1
140
4.0
141
1.0
290
     0
  0
SCALE
  5
56
102
{ACAD_REACTORS
330
47
102
}
330
47
100
AcDbScale
 70
     0
300
8:1
140
8.0
141
1.0
290
     0
  0
SCALE
  5
57
102
{ACAD_REACTORS
330
47
102
}
330
47
100
AcDbScale
 70
     0
300
10:1
140
10.0
141
1.0
290
     0
  0
SCALE
  5
58
102
{ACAD_REACTORS
330
47
102
}
330
47
100
AcDbScale
 70
     0
300
100:1
140
100.0
141
1.0
290
     0
  0
SCALE
  5
59
102
{ACAD_REACTORS
330
47
102
}
330
47
100
AcDbScale
 70
     0
300
1/128" = 1'-0"
140
0.0078125
141
12.0
290
     0
  0
SCALE
  5
5A
102
{ACAD_REACTORS
330
47
102
}
330
47
100
AcDbScale
 70
     0
300
1/64" = 1'-0"
140
0.015625
141
12.0
290
     0
  0
SCALE
  5
5B
102
{ACAD_REACTORS
330
47
102
}
330
47
100
AcDbScale
 70
     0
300
1/32" = 1'-0"
140
0.03125
141
12.0
290
     0
  0
SCALE
  5
5C
102
{ACAD_REACTORS
330
47
102
}
330
47
100
AcDbScale
 70
     0
300
1/16" = 1'-0"
140
0.0625
141
12.0
290
     0
  0
SCALE
  5
5D
102
{ACAD_REACTORS
330
47
102
}
330
47
100
AcDbScale
 70
     0
300
3/32" = 1'-0"
140
0.09375
141
12.0
290
     0
  0
SCALE
  5
5E
102
{ACAD_REACTORS
330
47
102
}
330
47
100
AcDbScale
 70
     0
300
1/8" = 1'-0"
140
0.125
141
12.0
290
     0
  0
SCALE
  5
5F
102
{ACAD_REACTORS
330
47
102
}
330
47
100
AcDbScale
 70
     0
300
3/16" = 1'-0"
140
0.1875
141
12.0
290
     0
  0
SCALE
  5
60
102
{ACAD_REACTORS
330
47
102
}
330
47
100
AcDbScale
 70
     0
300
1/4" = 1'-0"
140
0.25
141
12.0
290
     0
  0
SCALE
  5
61
102
{ACAD_REACTORS
330
47
102
}
330
47
100
AcDbScale
 70
     0
300
3/8" = 1'-0"
140
0.375
141
12.0
290
     0
  0
SCALE
  5
62
102
{ACAD_REACTORS
330
47
102
}
330
47
100
AcDbScale
 70
     0
300
1/2" = 1'-0"
140
0.5
141
12.0
290
     0
  0
SCALE
  5
63
102
{ACAD_REACTORS
330
47
102
}
330
47
100
AcDbScale
 70
     0
300
3/4" = 1'-0"
140
0.75
141
12.0
290
     0
  0
SCALE
  5
64
102
{ACAD_REACTORS
330
47
102
}
330
47
100
AcDbScale
 70
     0
300
1" = 1'-0"
140
1.0
141
12.0
290
     0
  0
SCALE
  5
65
102
{ACAD_REACTORS
330
47
102
}
330
47
100
AcDbScale
 70
     0
300
1-1/2" = 1'-0"
140
1.5
141
12.0
290
     0
  0
SCALE
  5
66
102
{ACAD_REACTORS
330
47
102
}
330
47
100
AcDbScale
 70
     0
300
3" = 1'-0"
140
3.0
141
12.0
290
     0
  0
SCALE
  5
67
102
{ACAD_REACTORS
330
47
102
}
330
47
100
AcDbScale
 70
     0
300
6" = 1'-0"
140
6.0
141
12.0
290
     0
  0
SCALE
  5
68
102
{ACAD_REACTORS
330
47
102
}
330
47
100
AcDbScale
 70
     0
300
1'-0" = 1'-0"
140
12.0
141
12.0
290
     0
  0
VISUALSTYLE
  5
2F
102
{ACAD_REACTORS
330
2A
102
}
330
2A
100
AcDbVisualStyle
  2
2dWireframe
 70
     4
177
     2
291
     0
 71
     0
176
     1
 72
     2
176
     1
 73
     0
176
     1
 90
        0
176
     1
 40
0.6
176
     1
 41
30.0
176
     1
 62
     5
 63
     7
421
 16777215
176
     1
 74
     1
176
     1
 91
        4
176
     1
 64
     7
176
     1
 65
   257
176
     1
 75
     1
176
     1
175
     1
176
     1
 42
1.0
176
     1
 92
        0
176
     1
 66
   257
176
     1
 43
1.0
176
     1
 76
     1
176
     1
 77
     6
176
     1
 78
     2
176
     1
 67
     7
176
     1
 79
     5
176
     1
170
     0
176
     1
171
     0
176
     1
290
     0
176
     1
 93
        1
176
     1
 44
0.0
176
     1
173
     0
176
     1
  0
VISUALSTYLE
  5
32
102
{ACAD_REACTORS
330
2A
102
}
330
2A
100
AcDbVisualStyle
  2
Basic
 70
     7
177
     2
291
     1
 71
     1
176
     1
 72
     0
176
     1
 73
     1
176
     1
 90
        0
176
     1
 40
0.6
176
     1
 41
30.0
176
     1
 62
     5
 63
     7
421
 16777215
176
     1
 74
     0
176
     1
 91
        4
176
     1
 64
     7
176
     1
 65
   257
176
     1
 75
     1
176
     1
175
     1
176
     1
 42
1.0
176
     1
 92
        8
176
     1
 66
     7
176
     1
 43
1.0
176
     1
 76
     1
176
     1
 77
     6
176
     1
 78
     2
176
     1
 67
     7
176
     1
 79
     5
176
     1
170
     0
176
     1
171
     0
176
     1
290
     0
176
     1
 93
        1
176
     1
 44
0.0
176
     1
173
     0
176
     1
  0
VISUALSTYLE
  5
36
102
{ACAD_REACTORS
330
2A
102
}
330
2A
100
AcDbVisualStyle
  2
Brighten
 70
    12
177
     2
291
     1
 71
     2
176
     1
 72
     2
176
     1
 73
     0
176
     1
 90
        0
176
     1
 40
0.6
176
     1
 41
30.0
176
     1
 62
     5
 63
     7
421
 16777215
176
     1
 74
     1
176
     1
 91
        4
176
     1
 64
     7
176
     1
 65
   257
176
     1
 75
     1
176
     1
175
     1
176
     1
 42
1.0
176
     1
 92
        8
176
     1
 66
     7
176
     1
 43
1.0
176
     1
 76
     1
176
     1
 77
     6
176
     1
 78
     2
176
     1
 67
     7
176
     1
 79
     5
176
     1
170
     0
176
     1
171
     0
176
     1
290
     0
176
     1
 93
        1
176
     1
 44
50.0
176
     1
173
     0
176
     1
  0
VISUALSTYLE
  5
3A
102
{ACAD_REACTORS
330
2A
102
}
330
2A
100
AcDbVisualStyle
  2
ColorChange
 70
    16
177
     2
291
     1
 71
     2
176
     1
 72
     2
176
     1
 73
     3
176
     1
 90
        0
176
     1
 40
0.6
176
     1
 41
30.0
176
     1
 62
     5
 63
     8
421
  8421504
176
     1
 74
     1
176
     1
 91
        4
176
     1
 64
     7
176
     1
 65
   257
176
     1
 75
     1
176
     1
175
     1
176
     1
 42
1.0
176
     1
 92
        8
176
     1
 66
     8
424
  8421504
176
     1
 43
1.0
176
     1
 76
     1
176
     1
 77
     6
176
     1
 78
     2
176
     1
 67
     7
176
     1
 79
     5
176
     1
170
     0
176
     1
171
     0
176
     1
290
     0
176
     1
 93
        1
176
     1
 44
0.0
176
     1
173
     0
176
     1
  0
VISUALSTYLE
  5
34
102
{ACAD_REACTORS
330
2A
102
}
330
2A
100
AcDbVisualStyle
  2
Conceptual
 70
     9
177
     2
291
     0
 71
     3
176
     1
 72
     2
176
     1
 73
     0
176
     1
 90
        0
176
     1
 40
0.6
176
     1
 41
30.0
176
     1
 62
     5
 63
     7
421
 16777215
176
     1
 74
     2
176
     1
 91
        2
176
     1
 64
     7
176
     1
 65
   257
176
     1
 75
     1
176
     1
175
     1
176
     1
 42
179.0
176
     1
 92
        8
176
     1
 66
     7
176
     1
 43
1.0
176
     1
 76
     1
176
     1
 77
     6
176
     1
 78
     2
176
     1
 67
     7
176
     1
 79
     3
176
     1
170
     0
176
     1
171
     0
176
     1
290
     0
176
     1
 93
        1
176
     1
 44
0.0
176
     1
173
     0
176
     1
  0
VISUALSTYLE
  5
35
102
{ACAD_REACTORS
330
2A
102
}
330
2A
100
AcDbVisualStyle
  2
Dim
 70
    11
177
     2
291
     1
 71
     2
176
     1
 72
     2
176
     1
 73
     0
176
     1
 90
        0
176
     1
 40
0.6
176
     1
 41
30.0
176
     1
 62
     5
 63
     7
421
 16777215
176
     1
 74
     1
176
     1
 91
        4
176
     1
 64
     7
176
     1
 65
   257
176
     1
 75
     1
176
     1
175
     1
176
     1
 42
1.0
176
     1
 92
        8
176
     1
 66
     7
176
     1
 43
1.0
176
     1
 76
     1
176
     1
 77
     6
176
     1
 78
     2
176
     1
 67
     7
176
     1
 79
     5
176
     1
170
     0
176
     1
171
     0
176
     1
290
     0
176
     1
 93
        1
176
     1
 44
-50.0
176
     1
173
     0
176
     1
  0
VISUALSTYLE
  5
3D
102
{ACAD_REACTORS
330
2A
102
}
330
2A
100
AcDbVisualStyle
  2
EdgeColorOff
 70
    22
177
     2
291
     1
 71
     2
176
     0
 72
     2
176
     0
 73
     0
176
     0
 90
        0
176
     0
 40
0.6
176
     0
 41
30.0
176
     0
 62
     5
 63
     7
421
 16777215
176
     0
 74
     1
176
     0
 91
        4
176
     0
 64
     7
176
     0
 65
   257
176
     0
 75
     1
176
     0
175
     1
176
     0
 42
1.0
176
     0
 92
        8
176
     2
 66
     7
176
     0
 43
1.0
176
     0
 76
     1
176
     0
 77
     6
176
     0
 78
     2
176
     0
 67
     7
176
     0
 79
     5
176
     0
170
     0
176
     0
171
     0
176
     0
290
     0
176
     0
 93
        1
176
     0
 44
0.0
176
     0
173
     0
176
     0
  0
VISUALSTYLE
  5
39
102
{ACAD_REACTORS
330
2A
102
}
330
2A
100
AcDbVisualStyle
  2
Facepattern
 70
    15
177
     2
291
     1
 71
     2
176
     1
 72
     2
176
     1
 73
     0
176
     1
 90
        0
176
     1
 40
0.6
176
     1
 41
30.0
176
     1
 62
     5
 63
     7
421
 16777215
176
     1
 74
     1
176
     1
 91
        4
176
     1
 64
     7
176
     1
 65
   257
176
     1
 75
     1
176
     1
175
     1
176
     1
 42
1.0
176
     1
 92
        8
176
     1
 66
     7
176
     1
 43
1.0
176
     1
 76
     1
176
     1
 77
     6
176
     1
 78
     2
176
     1
 67
     7
176
     1
 79
     5
176
     1
170
     0
176
     1
171
     0
176
     1
290
     0
176
     1
 93
        1
176
     1
 44
0.0
176
     1
173
     0
176
     1
  0
VISUALSTYLE
  5
2B
102
{ACAD_REACTORS
330
2A
102
}
330
2A
100
AcDbVisualStyle
  2
Flat
 70
     0
177
     2
291
     1
 71
     2
176
     1
 72
     1
176
     1
 73
     1
176
     1
 90
        2
176
     1
 40
0.6
176
     1
 41
30.0
176
     1
 62
     5
 63
     7
421
 16777215
176
     1
 74
     0
176
     1
 91
        0
176
     1
 64
     7
176
     1
 65
   257
176
     1
 75
     1
176
     1
175
     1
176
     1
 42
1.0
176
     1
 92
        8
176
     1
 66
     7
176
     1
 43
1.0
176
     1
 76
     1
176
     1
 77
     6
176
     1
 78
     2
176
     1
 67
     7
176
     1
 79
     5
176
     1
170
     0
176
     1
171
     0
176
     1
290
     0
176
     1
 93
       13
176
     1
 44
0.0
176
     1
173
     0
176
     1
  0
VISUALSTYLE
  5
2C
102
{ACAD_REACTORS
330
2A
102
}
330
2A
100
AcDbVisualStyle
  2
FlatWithEdges
 70
     1
177
     2
291
     1
 71
     2
176
     1
 72
     1
176
     1
 73
     1
176
     1
 90
        2
176
     1
 40
0.6
176
     1
 41
30.0
176
     1
 62
     5
 63
     7
421
 16777215
176
     1
 74
     1
176
     1
 91
        0
176
     1
 64
     7
176
     1
 65
   257
176
     1
 75
     1
176
     1
175
     1
176
     1
 42
1.0
176
     1
 92
        0
176
     1
 66
   257
176
     1
 43
1.0
176
     1
 76
     1
176
     1
 77
     6
176
     1
 78
     2
176
     1
 67
     7
176
     1
 79
     5
176
     1
170
     0
176
     1
171
     0
176
     1
290
     0
176
     1
 93
       13
176
     1
 44
0.0
176
     1
173
     0
176
     1
  0
VISUALSTYLE
  5
2D
102
{ACAD_REACTORS
330
2A
102
}
330
2A
100
AcDbVisualStyle
  2
Gouraud
 70
     2
177
     2
291
     1
 71
     2
176
     1
 72
     2
176
     1
 73
     1
176
     1
 90
        2
176
     1
 40
0.6
176
     1
 41
30.0
176
     1
 62
     5
 63
     7
421
 16777215
176
     1
 74
     0
176
     1
 91
        0
176
     1
 64
     7
176
     1
 65
   257
176
     1
 75
     1
176
     1
175
     1
176
     1
 42
1.0
176
     1
 92
        0
176
     1
 66
     7
176
     1
 43
1.0
176
     1
 76
     1
176
     1
 77
     6
176
     1
 78
     2
176
     1
 67
     7
176
     1
 79
     5
176
     1
170
     0
176
     1
171
     0
176
     1
290
     0
176
     1
 93
       13
176
     1
 44
0.0
176
     1
173
     0
176
     1
  0
VISUALSTYLE
  5
2E
102
{ACAD_REACTORS
330
2A
102
}
330
2A
100
AcDbVisualStyle
  2
GouraudWithEdges
 70
     3
177
     2
291
     1
 71
     2
176
     1
 72
     2
176
     1
 73
     1
176
     1
 90
        2
176
     1
 40
0.6
176
     1
 41
30.0
176
     1
 62
     5
 63
     7
421
 16777215
176
     1
 74
     1
176
     1
 91
        0
176
     1
 64
     7
176
     1
 65
   257
176
     1
 75
     1
176
     1
175
     1
176
     1
 42
1.0
176
     1
 92
        0
176
     1
 66
   257
176
     1
 43
1.0
176
     1
 76
     1
176
     1
 77
     6
176
     1
 78
     2
176
     1
 67
     7
176
     1
 79
     5
176
     1
170
     0
176
     1
171
     0
176
     1
290
     0
176
     1
 93
       13
176
     1
 44
0.0
176
     1
173
     0
176
     1
  0
VISUALSTYLE
  5
31
102
{ACAD_REACTORS
330
2A
102
}
330
2A
100
AcDbVisualStyle
  2
Hidden
 70
     6
177
     2
291
     0
 71
     1
176
     1
 72
     2
176
     1
 73
     2
176
     1
 90
        0
176
     1
 40
0.6
176
     1
 41
30.0
176
     1
 62
     5
 63
     7
421
 16777215
176
     1
 74
     2
176
     1
 91
        2
176
     1
 64
     7
176
     1
 65
   257
176
     1
 75
     2
176
     1
175
     1
176
     1
 42
40.0
176
     1
 92
        0
176
     1
 66
   257
176
     1
 43
1.0
176
     1
 76
     1
176
     1
 77
     6
176
     1
 78
     2
176
     1
 67
     7
176
     1
 79
     3
176
     1
170
     0
176
     1
171
     0
176
     1
290
     0
176
     1
 93
        1
176
     1
 44
0.0
176
     1
173
     0
176
     1
  0
VISUALSTYLE
  5
3B
102
{ACAD_REACTORS
330
2A
102
}
330
2A
100
AcDbVisualStyle
  2
JitterOff
 70
    20
177
     2
291
     1
 71
     2
176
     0
 72
     2
176
     0
 73
     0
176
     0
 90
        0
176
     0
 40
0.6
176
     0
 41
30.0
176
     0
 62
     5
 63
     7
421
 16777215
176
     0
 74
     1
176
     0
 91
        4
176
     0
 64
     7
176
     0
 65
   257
176
     0
 75
     1
176
     0
175
     1
176
     0
 42
1.0
176
     0
 92
       10
176
     2
 66
     7
176
     0
 43
1.0
176
     0
 76
     1
176
     0
 77
     6
176
     0
 78
     2
176
     0
 67
     7
176
     0
 79
     5
176
     0
170
     0
176
     0
171
     0
176
     0
290
     0
176
     0
 93
        1
176
     0
 44
0.0
176
     0
173
     0
176
     0
  0
VISUALSTYLE
  5
38
102
{ACAD_REACTORS
330
2A
102
}
330
2A
100
AcDbVisualStyle
  2
Linepattern
 70
    14
177
     2
291
     1
 71
     2
176
     1
 72
     2
176
     1
 73
     0
176
     1
 90
        0
176
     1
 40
0.6
176
     1
 41
30.0
176
     1
 62
     5
 63
     7
421
 16777215
176
     1
 74
     1
176
     1
 91
        4
176
     1
 64
     7
176
     1
 65
   257
176
     1
 75
     7
176
     1
175
     7
176
     1
 42
1.0
176
     1
 92
        8
176
     1
 66
     7
176
     1
 43
1.0
176
     1
 76
     1
176
     1
 77
     6
176
     1
 78
     2
176
     1
 67
     7
176
     1
 79
     5
176
     1
170
     0
176
     1
171
     0
176
     1
290
     0
176
     1
 93
        1
176
     1
 44
0.0
176
     1
173
     0
176
     1
  0
VISUALSTYLE
  5
3C
102
{ACAD_REACTORS
330
2A
102
}
330
2A
100
AcDbVisualStyle
  2
OverhangOff
 70
    21
177
     2
291
     1
 71
     2
176
     0
 72
     2
176
     0
 73
     0
176
     0
 90
        0
176
     0
 40
0.6
176
     0
 41
30.0
176
     0
 62
     5
 63
     7
421
 16777215
176
     0
 74
     1
176
     0
 91
        4
176
     0
 64
     7
176
     0
 65
   257
176
     0
 75
     1
176
     0
175
     1
176
     0
 42
1.0
176
     0
 92
        9
176
     2
 66
     7
176
     0
 43
1.0
176
     0
 76
     1
176
     0
 77
     6
176
     0
 78
     2
176
     0
 67
     7
176
     0
 79
     5
176
     0
170
     0
176
     0
171
     0
176
     0
290
     0
176
     0
 93
        1
176
     0
 44
0.0
176
     0
173
     0
176
     0
  0
VISUALSTYLE
  5
33
102
{ACAD_REACTORS
330
2A
102
}
330
2A
100
AcDbVisualStyle
  2
Realistic
 70
     8
177
     2
291
     0
 71
     2
176
     1
 72
     3
176
     1
 73
     0
176
     1
 90
        2
176
     1
 40
0.6
176
     1
 41
30.0
176
     1
 62
     5
 63
     7
421
 16777215
176
     1
 74
     0
176
     1
 91
        0
176
     1
 64
     7
176
     1
 65
   257
176
     1
 75
     1
176
     1
175
     1
176
     1
 42
1.0
176
     1
 92
        8
176
     1
 66
   257
176
     1
 43
1.0
176
     1
 76
     1
176
     1
 77
     6
176
     1
 78
     2
176
     1
 67
     7
176
     1
 79
     3
176
     1
170
     0
176
     1
171
     0
176
     1
290
     0
176
     1
 93
       13
176
     1
 44
0.0
176
     1
173
     0
176
     1
  0
VISUALSTYLE
  5
42
102
{ACAD_REACTORS
330
2A
102
}
330
2A
100
AcDbVisualStyle
  2
Shaded
 70
    27
177
     2
291
     0
 71
     2
176
     1
 72
     2
176
     1
 73
     1
176
     1
 90
        2
176
     1
 40
0.6
176
     1
 41
30.0
176
     1
 62
     5
 63
     7
421
 16777215
176
     1
 74
     0
176
     1
 91
        4
176
     1
 64
     7
176
     1
 65
   257
176
     1
 75
     1
176
     1
175
     1
176
     1
 42
1.0
176
     1
 92
        8
176
     1
 66
   257
176
     1
 43
1.0
176
     1
 76
     1
176
     1
 77
     6
176
     1
 78
     2
176
     1
 67
     8
425
  7895160
176
     1
 79
     3
176
     1
170
     0
176
     1
171
     0
176
     1
290
     0
176
     1
 93
        5
176
     1
 44
0.0
176
     1
173
     0
176
     1
  0
VISUALSTYLE
  5
41
102
{ACAD_REACTORS
330
2A
102
}
330
2A
100
AcDbVisualStyle
  2
Shaded with edges
 70
    26
177
     2
291
     0
 71
     2
176
     1
 72
     2
176
     1
 73
     1
176
     1
 90
        2
176
     1
 40
0.6
176
     1
 41
30.0
176
     1
 62
     5
 63
     7
421
 16777215
176
     1
 74
     1
176
     1
 91
       10
176
     1
 64
     7
176
     1
 65
   257
176
     1
 75
     2
176
     1
175
     1
176
     1
 42
1.0
176
     1
 92
        8
176
     1
 66
   257
176
     1
 43
1.0
176
     1
 76
     1
176
     1
 77
     6
176
     1
 78
     2
176
     1
 67
     7
176
     1
 79
     3
176
     1
170
     0
176
     1
171
     0
176
     1
290
     0
176
     1
 93
        5
176
     1
 44
0.0
176
     1
173
     0
176
     1
  0
VISUALSTYLE
  5
3E
102
{ACAD_REACTORS
330
2A
102
}
330
2A
100
AcDbVisualStyle
  2
Shades of Gray
 70
    23
177
     2
291
     0
 71
     2
176
     1
 72
     2
176
     1
 73
     3
176
     1
 90
        0
176
     1
 40
0.6
176
     1
 41
30.0
176
     1
 62
     5
 63
     7
421
 16777215
176
     1
 74
     2
176
     1
 91
        2
176
     1
 64
     7
176
     1
 65
     7
176
     1
 75
     1
176
     1
175
     1
176
     1
 42
40.0
176
     1
 92
        8
176
     1
 66
     7
176
     1
 43
1.0
176
     1
 76
     1
176
     1
 77
     6
176
     1
 78
     2
176
     1
 67
     7
176
     1
 79
     3
176
     1
170
     0
176
     1
171
     0
176
     1
290
     0
176
     1
 93
        1
176
     1
 44
0.0
176
     1
173
     0
176
     1
  0
VISUALSTYLE
  5
3F
102
{ACAD_REACTORS
330
2A
102
}
330
2A
100
AcDbVisualStyle
  2
Sketchy
 70
    24
177
     2
291
     0
 71
     1
176
     1
 72
     2
176
     1
 73
     2
176
     1
 90
        0
176
     1
 40
0.6
176
     1
 41
30.0
176
     1
 62
     5
 63
     7
421
 16777215
176
     1
 74
     2
176
     1
 91
        2
176
     1
 64
     7
176
     1
 65
     7
176
     1
 75
     1
176
     1
175
     1
176
     1
 42
40.0
176
     1
 92
       11
176
     1
 66
     7
176
     1
 43
1.0
176
     1
 76
     1
176
     1
 77
     6
176
     1
 78
     2
176
     1
 67
     7
176
     1
 79
     6
176
     1
170
     0
176
     1
171
     0
176
     1
290
     0
176
     1
 93
        1
176
     1
 44
0.0
176
     1
173
     0
176
     1
  0
VISUALSTYLE
  5
37
102
{ACAD_REACTORS
330
2A
102
}
330
2A
100
AcDbVisualStyle
  2
Thicken
 70
    13
177
     2
291
     1
 71
     2
176
     1
 72
     2
176
     1
 73
     0
176
     1
 90
        0
176
     1
 40
0.6
176
     1
 41
30.0
176
     1
 62
     5
 63
     7
421
 16777215
176
     1
 74
     1
176
     1
 91
        4
176
     1
 64
     7
176
     1
 65
   257
176
     1
 75
     1
176
     1
175
     1
176
     1
 42
1.0
176
     1
 92
       12
176
     1
 66
     7
176
     1
 43
1.0
176
     1
 76
     1
176
     1
 77
     6
176
     1
 78
     2
176
     1
 67
     7
176
     1
 79
     5
176
     1
170
     0
176
     1
171
     0
176
     1
290
     0
176
     1
 93
        1
176
     1
 44
0.0
176
     1
173
     0
176
     1
  0
VISUALSTYLE
  5
30
102
{ACAD_REACTORS
330
2A
102
}
330
2A
100
AcDbVisualStyle
  2
Wireframe
 70
     5
177
     2
291
     0
 71
     0
176
     1
 72
     2
176
     1
 73
     0
176
     1
 90
        0
176
     1
 40
0.6
176
     1
 41
30.0
176
     1
 62
     5
 63
     7
421
 16777215
176
     1
 74
     1
176
     1
 91
        4
176
     1
 64
     7
176
     1
 65
   257
176
     1
 75
     1
176
     1
175
     1
176
     1
 42
1.0
176
     1
 92
        0
176
     1
 66
   257
176
     1
 43
1.0
176
     1
 76
     1
176
     1
 77
     6
176
     1
 78
     2
176
     1
 67
     7
176
     1
 79
     3
176
     1
170
     0
176
     1
171
     0
176
     1
290
     0
176
     1
 93
        1
176
     1
 44
0.0
176
     1
173
     0
176
     1
  0
VISUALSTYLE
  5
40
102
{ACAD_REACTORS
330
2A
102
}
330
2A
100
AcDbVisualStyle
  2
X-Ray
 70
    25
177
     2
291
     0
 71
     2
176
     1
 72
     2
176
     1
 73
     1
176
     1
 90
        1
176
     1
 40
0.5
176
     1
 41
30.0
176
     1
 62
     5
 63
     7
421
 16777215
176
     1
 74
     1
176
     1
 91
        0
176
     1
 64
     7
176
     1
 65
   257
176
     1
 75
     1
176
     1
175
     1
176
     1
 42
1.0
176
     1
 92
        8
176
     1
 66
     7
176
     1
 43
1.0
176
     1
 76
     1
176
     1
 77
     6
176
     1
 78
     2
176
     1
 67
     7
176
     1
 79
     3
176
     1
170
     0
176
     1
171
     0
176
     1
290
     0
176
     1
 93
       13
176
     1
 44
0.0
176
     1
173
     0
176
     1
  0
DICTIONARYVAR
  5
145
102
{ACAD_REACTORS
330
144
102
}
330
144
100
DictionaryVariables
280
     0
  1
1:1
  0
ENDSEC
  0
EOF
